Oops, an error
Loading. Please wait.

Friday Night tab

version 3
version 3

Whole song

Interactive

by McFly
3,779 views 1 this week
2 commentsread comments
1 2 3 4 5
x 6
add to favorites
×
Save as Personal and add changes to this tab that will be seen only by you. Learn more ›
×
You can save this tab as Personal to edit and correct it or add notes. All changes will be seen only by you. Learn more »
launch autoscroll
font size
0
reset
how to read this tab
guitar tuner
edit
Autoscroll
slow
fast
+/-
esc
set tempo
stop
Author
Unregistered
[Intro]

e|-----------------------------------------------|
B|-----------------------------------------------|
G|--9-9-9-9---9-9-9-9---9-9-9---9-9-9-9---9-9-9--|
D|--9-9-9-9---9-9-9-9---9-9-9---6-6-6-6---7-7-7--|
A|--7-7-7-7---7-7-7-7---7-7-7---7-7-7-7---7-7-7--|
E|-----------------------------------------------|

e|-----------|
B|-----------|
G|-----------|
D|--4-4-6-4--|
A|--4-4-6-4--|
E|--2-2-4-2--|

e|-----------------------------------------------|
B|-----------------------------------------------|
G|-----------------------------------------------|
D|--2-2-2-2---2-2-2-2---2-2-2---6-6-6-6---7-7-7--|
A|--2-2-2-2---2-2-2-2---2-2-2---6-6-6-6---7-7-7--|
E|--0-0-0-0---0-0-0-0---0-0-0---4-4-4-4---5-5-5--|

e|-----------|
B|-----------|
G|-----------|
D|--4-4-6-4--|
A|--4-4-6-4--|
E|--2-2-4-2--|

[Verse 1]
 (palm mute all the way):
e|-----------------------------|
B|-----------------------------|
G|-----------------------------|
D|--2---------6--------7-------|
A|--2---------6--------7-------|
E|--0-(x16)---4-(x8)---5-(x8)--|(x2)
   *         *        *
Sleeping through the day~~

e|-----------|
B|-----------|
G|-----------|
D|--4-4-6-4--|
A|--4-4-6-4--|
E|--2-2-4-2--|

e|----------------------------------------------------------|
B|----------------------------------------------------------|
G|----------------------------------------------------------|
D|--2-2-2-2---2-2-2-2---2-2-2---6-6-6-6---7-7-7----4-4-6-4--|
A|--2-2-2-2---2-2-2-2---2-2-2---6-6-6-6---7-7-7----4-4-6-4--|
E|--0-0-0-0---0-0-0-0---0-0-0---4-4-4-4---5-5-5----2-2-4-2--|(x2)
We could be together~~ (etc)

[Chorus]

e|----------------------|
B|----------------------|
G|----------------------|
D|--2---------4-4-6-4---|
A|--2---------4-4-6-4---|
E|--0-(x28)---2-2-4-2---|
   *
Think I'm gonna lose it, lose it, lose it,
Think I'm gonna lose it, lose it, lose it

e|-----------------------------------------------|
B|-----------------------------------------------|
G|-----------------------------------------------|
D|--2-2-2-2---2-2-2-2---2-2-2---6-6-6-6---7-7-7--|
A|--2-2-2-2---2-2-2-2---2-2-2---6-6-6-6---7-7-7--|
E|--0-0-0-0---0-0-0-0---0-0-0---4-4-4-4---5-5-5--|
                     Think I'm gonna lose it

e|-----------|
B|-----------|
G|-----------|
D|--4-4-6-4--|
A|--4-4-6-4--|
E|--2-2-4-2--|

[Verse 2]
(do the exact same thing as the first verse!)
(I haven't quite figured out that little guitar melody in the background yet..)

[Chorus]
e|---------------------------------------------|
B|---------------------------------------------|
G|------------2-2-2-------------4-4-4-4-4-4-4--|
D|--2---------2-2-2---2---------4-4-4-4-4-4-4--|
A|--2---------0-0-0---2---------2-2-2-2-2-2-2--|
E|--0-(x29)-----------0-(x25)------------------|
   *                 *


[Bridge]
e|-----------------------------------------------------------|
B|-----------------------------------------------------------|
G|--6-6-6-6-6-6-6--------------------------------------------|
D|--6-6-6-6-6-6-6---7-7-7-7-7-7-7-7---7~-9-9--9---7~-9-9--9--|
A|--4-4-4-4-4-4-4---7-7-7-7-7-7-7-7---7~-9-9--9---7~-9-9--9--|
E|------------------5-5-5-5-5-5-5-5---5~-7-7--7---5~-7-7--7--|(x2)

e|--------------------------------------|
B|--------------------------------------|
G|--6~----------------------------------|
D|--6~---6--7~---7~-9-9--9---7~-9-9--9--|
A|--4~---6--7~---7~-9-9--9---7~-9-9--9--|
E|-------4--5~---5~-7-7--7---5~-7-7--7--|

e|-----------------------------------------------------------|
B|-----------------------------------------------------------|
G|--6-6-6-6-6-6-6--------------------------------------------|
D|--6-6-6-6-6-6-6---7-7-7-7-7-7-7-7---7~-9-9--9---7~-9-9--9--|
A|--4-4-4-4-4-4-4---7-7-7-7-7-7-7-7---7~-9-9--9---7~-9-9--9--|
E|------------------5-5-5-5-5-5-5-5---5~-7-7--7---5~-7-7--7--|

e|-----------------------------------------|
B|-----------------------------------------|
G|-----------------------------------------|
D|--7-9-9---7-9-9---7-9-9---7-9-9---7-9-9--|
A|--7-9-9---7-9-9---7-9-9---7-9-9---7-9-9--|
E|--5-7-7---5-7-7---5-7-7---5-7-7---5-7-7--|

[Chorus]
(same as the second chorus, just longer, except the end is)
e|-----------|
B|-----------|
G|-----------|
D|--4-4-6-4--|
A|--4-4-6-4--|
E|--2-2-4-2--|

[Verse 3]
e|----------------------------------------------------------|
B|----------------------------------------------------------|
G|----------------------------------------------------------|
D|--2-2-2-2---2-2-2-2---2-2-2---6-6-6-6---7-7-7----4-4-6-4--|
A|--2-2-2-2---2-2-2-2---2-2-2---6-6-6-6---7-7-7----4-4-6-4--|
E|--0-0-0-0---0-0-0-0---0-0-0---4-4-4-4---5-5-5----2-2-4-2--|
We could be together~~ (etc)

e|-----------------------------------------------------------------|
B|-----------------------------------------------------------------|
G|-------------------------------4---------------------------------|
D|--2-2-2-2---2-2-2-2---2-2-2----4---------------------------------|
A|--2-2-2-2---2-2-2-2---2-2-2----2-(strum as many times as needed)-|
E|--0-0-0-0---0-0-0-0---0-0-0--------------------------------------|


[Bridge]
(same as the other bridge)

[Outro]

e|-----------------------------------------------|
B|-----------------------------------------------|
G|--9-9-9-9---9-9-9-9---9-9-9---9-9-9-9---9~-----|
D|--9-9-9-9---9-9-9-9---9-9-9---9-9-9-9---9~-----|
A|--7-7-7-7---7-7-7-7---7-7-7---7-7-7-7---7~-----|
E|-----------------------------------------------|
They come alive when I work the nights,
I guess I should have seen the warning signs


************************************

| ~  Vibrato
| *  palm mute

************************************

            
            
Suggest correction
Creating personal tab
Creating personal tab
You can edit any tab online and save it as your Personal.

You can edit, replace or remove any tab part or add personal notes – all changes will be seen only by you.

Personal tabs can be accessed anytime from any device, even offline.
Learn more »
comments
print report bad tab
2 comments total.
0 reply
McPenguinOvOb 10 Jun 20, 2009 07:23 PM

ok this is something I tabbed when I hadn't registered yet..
and I just realized I made a mistake!

all the parts that say

|-----------|
|-----------|
|-----------|
|--4-4-6-4--|
|--4-4-6-4--|
|--2-2-4-2--|

are actually

|-----------|
|-----------|
|-----------|
|--4-4-7-4--|
|--4-4-7-4--|
|--2-2-5-2--|

sorry! Xx

0 reply
lééti 597 Jun 27, 2009 11:11 AM

i really like your intro riff.

guest
Wanna post a correction for this tab? Suggest correction