Oops, an error
Loading. Please wait.

Ghostbusters tab

by McFly
52,872 views 60 this week
no commentswrite comment
1 2 3 4 5
x 5
add to favorites
×
Save as Personal and add changes to this tab that will be seen only by you. Learn more ›
×
You can save this tab as Personal to edit and correct it or add notes. All changes will be seen only by you. Learn more »
launch autoscroll
font size
0
reset
how to read this tab
guitar tuner
edit
Autoscroll
slow
fast
+/-
esc
set tempo
stop
Author
e|----------------------------------------|
B|----------------------------------------|
G|-----------------------3--7-7-7-7-------|
D|---9~--7~--5~--3-3--2--3--7-7-7-7-------|
A|---9~--7~--5~--3-3--2--1--5-5-5-5-------|
E|---7~--5~--3~--1-1--0-------------------|
                           .........
ooooohhieeee!

[Intro riff]

      B      A  E   B   A E
      |      |  |   |   | |
e|----7-10-7-9-5---7777-5-7-------|
B|--------------------------------|
G|--------------------------------|  x4
D|--------------------------------|
A|--------------------------------|
E|--------------------------------|
Ghostbusters!

           B             A  E
If there's something strange
B             A  E
in your neighborhood
B               A   E
Who you gonna call
    B         A   E
(Ghostbusters)

           B             A E
If there's something weird
B                     A  E
and it don't look good
B               A   E
Who you gonna call
    B         A   E
(Ghostbusters)

 [Riff 1]
e|---10-----10-----10-----10-----10--------------------|
B|------12-----12-----12-----12-----12---10-11-12------|
G|-----------------------------------------------------|
D|-----------------------------------------------------|
A|-----------------------------------------------------|  x4
E|-----------------------------------------------------|

e|---10-----10-----10--1414-1414-14-~16----|
B|-----12-----12---------------------------|
G|-----------------------------------------|
D|-----------------------------------------|
A|-----------------------------------------|
E|-----------------------------------------|
(I ain't afraid of no ghost)
(I ain't afraid of no ghost)

[Intro riff]

      B      A  E   B   A  E
      |      |  |   |   |  |   .....
e|----7-10-7-9-5---7777-5-7---77-10-7-9-5--2~2~2~2~----|
B|-----------------------------------------------------|
G|-----------------------------------------------------|
D|-----------------------------------------------------|
A|-----------------------------------------------------|
E|-----------------------------------------------------|

          B              A  E
If there's something strange
B                        A  E
running through your head
B                A  E
Who you gonna call
   B          A  E
(Ghostbusters)

  B             A  E
An invisible man
       B          A  E
sleeping in your bed
   B              A  E
Oh Who you gonna call
   B          A  E
(Ghostbusters)

[Riff 1]

I ain't afraid of no ghost
I ain't afraid of no ghost

[Intro riff]

      B      A  E   B   A  E
      |      |  |   |   |  |
e|----7-10-7-9-5---7777-5-7---77-10-7-9-5--2~2~---------|
B|------------------------------------------------------|
G|------------------------------------------------------|
D|------------------------------------------------------|
A|------------------------------------------------------|
E|------------------------------------------------------|

 riff 2
e|-10-9--------7-5------10-12-14p12s10----10-9-----------|
B|------10~--------5~----------------------------10~-----|
G|-------------------------------------------------------|
D|-------------------------------------------------------|
A|-------------------------------------------------------|
E|-------------------------------------------------------|
 I ain't afraid of no ghost
 Nobody likes the ghost

Yeah
Yeah
Yeah
Yeah

e|----7-10-7-9-5---7777-5-7-------|
B|--------------------------------|
G|--------------------------------|  x2
D|--------------------------------|
A|--------------------------------|
E|--------------------------------|

     B          A          B
If you've had a dose of a freaky ghost
A         B            A  E
Maybe you'd better call


Who you gonna call  x10 no chords
(Ghostbusters)

B B B B B B  A A A  E E E  x2

1,2,3,4

B               A  E
Who you gonna call     ('till the end)
     B            A  E
(Ghostbusters)
                    B~
Oh who you gonna call


Chords

E: 022xxx or x7999x or xx2454
A: x022xx or 577655 or xx7655
B: x244xx or 799877 or xx9877

            
            
Suggest correction
Creating personal tab
Creating personal tab
You can edit any tab online and save it as your Personal.

You can edit, replace or remove any tab part or add personal notes – all changes will be seen only by you.

Personal tabs can be accessed anytime from any device, even offline.
Learn more »
comments
print report bad tab
guest
You may want to rate the tab now too:
select rating
Wanna post a correction for this tab? Suggest correction