Oops, an error
Loading. Please wait.

I Need A Woman bass

version 1
version 1

Whole song

by McFly
3,540 views 1 this week
4 commentsread comments
1 2 3 4 5
x 3
add to favorites
×
Save as Personal and add changes to this tab that will be seen only by you. Learn more ›
×
You can save this tab as Personal to edit and correct it or add notes. All changes will be seen only by you. Learn more »
launch autoscroll
font size
0
reset
guitar tuner
edit
Autoscroll
slow
fast
+/-
esc
set tempo
stop
Difficulty
McFly - I Need A Woman - Bass Tab

Intro:
G|-----------------------------------------------------------------|
D|-----------------------------------------------------------------|
A|---------------3-------3-----------------3------3----------------|
E|---1---3---5-------5---------1---3---5------5--------------------|   x2

Verse 1:
G|-----------------------------------------------------------------|
D|-----------------------------------------------------------------|
A|---------------3-------3-----------------3------3----------------|
E|---1---3---5-------5---------1---3---5------5--------------------|   x2

G|-----------------------------------------------------------------|
D|---------------3-----3-------------------3------3----------------|
A|---1---3---5------5----------1---3---5------5--------------------|
E|-----------------------------------------------------------------|   x1

G|-----------------------------------------------------------------|
D|-----------------------------------------------------------------|
A|---------------3-------3-----------------3------3----------------|
E|---1---3---5-------5---------1---3---5------5--------------------|   x3

G|-----------------------------------------------------------------|
D|---------------3-----3-------------------3------3----------------|
A|---1---3---5------5----------1---3---5------5--------------------|
E|-----------------------------------------------------------------|   x1 

G|-----------------------------------------------------------------|
D|-----------------------------------------------------------------|
A|---------------3-------3-----------------3------3----------------|
E|---1---3---5-------5---------1---3---5------5--------------------|   x1


Pre Chorus:
C                        
But when it gets to midnight,        

B   C
   I'm in my bed alone.

B   C               
   Your all I want,

B   C  
   your all I need.

B   C
   It's cold in the night but I'm looking for the heat

Chorus:
F                 Am    
Baby I, I need a woman. 
          B          
Not any woman 
         F               C
but a woman who needs me too.

so how about you?

G|-----------------------------------------------------------------|
D|-----------------------------------------------------------------|
A|---------------3-------3-----------------3------3----------------|
E|---1---3---5-------5---------1---3---5------5--------------------|   x3

G|-----------------------------------------------------------------|
D|---------------3-----3-------------------3------3----------------|
A|---1---3---5------5----------1---3---5------5--------------------|
E|-----------------------------------------------------------------|   x1    

G|-----------------------------------------------------------------|
D|-----------------------------------------------------------------|
A|---------------3-------3-----------------3------3----------------|
E|---1---3---5-------5---------1---3---5------5--------------------|   x1

Pre Chorus:
C                        
But when it gets to sunrise,        

B   C
   I wake up alone.

B   C               
   Your all I want,

B   C  
   your all I need.

B   C
   This bed is burning up to 99 degrees


Chorus:
F            Am    
I, I need a woman. 
         B          
Not any woman 
         F              C
but a woman who needs me too.

Let me tell you baby
 
F            Am    
I, I need a woman. 
          B          
Not any woman 
         F               C
but a woman who needs me too.

so how about you?


Solo:

F            Am    
I, I need a woman. 
          B          
Not any woman 
        F                 C
but a woman who needs me too.

so how about you?


G|-----------------------------------------------------------------|
D|-----------------------------------------------------------------|
A|---------------3-------3-----------------3------3----------------|
E|---1---3---5-------5---------1---3---5------5--------------------|   x1

G|-----------------------------------------------------------------|
D|-----------------------------------------------------------------|
A|-----------------3-------3---------------------------------------|
E|---1---3---5-------5---------1-----------------------------------|   x1

Chorus:
F            Am    
I, I need a woman. 
          B          
Not any woman 
        F                C
but a woman who needs me too.

Uh uh uh uh
 
F             Am    
I, I need a woman. 
          B          
Not any woman 
         F                C
but a woman who needs me too.

so how about you?

Outro:
G|-----------------------------------------------------------------|
D|-----------------------------------------------------------------|
A|---------------3-------3-----------------3------3----------------|
E|---1---3---5-------5---------1---3---5------5--------------------|   x1

G|-----------------------------------------------------------------|
D|-----------------------------------------------------------------|
A|--------------3-----3--------------------------------------------|
E|---1---3---5-----5-----------------------------------------------|   x1

Intro
Verse 1
Verse 2
Prechorus
Chorus
Intro
Verse 3
Prechorus
Chorus
Solo (Chorus)
Intro
Chorus
Outro
      C
G|--------|          
D|--------|            
A|---3----|
E|--------|

     B
G|--------|
D|--------|
A|---1----|
E|--------|

      F
G|--------|
D|---3----|
A|--------|
E|--------|

    Am
G|--------|
D|--------|
A|---7----|
E|--------|
Suggest correction
Creating personal tab
Creating personal tab
You can edit any tab online and save it as your Personal.

You can edit, replace or remove any tab part or add personal notes – all changes will be seen only by you.

Personal tabs can be accessed anytime from any device, even offline.
Learn more »
Give kudos to tab author, rate the tab!
1 2 3 4 5
comments
print report bad tab
4 comments total. Showing first comments.
0 reply
FramingHanley<3 52 Dec 09, 2010 12:56 PM

This tab is great! I'm just wondering if there are some slides here. I could be wrong though. I just sounds smoother that way:)
G|------------------------------------------------------
D|------------------------------------------------------
A|-------------3-------3---------------3------3---------
E|---1---3/5-------5---------1---3/5------5-------------

0 reply
FramingHanley<3 52 Dec 11, 2010 01:50 PM

in the chorus and pre-chorus, it's a Bb not a B. you've got it right below, just labeled wrong.
Bb
G|--------|
D|--------|
A|---1----|
E|--------|

0 reply
Hyouhen 16 Aug 29, 2011 05:41 PM

FIxed:

G|-----------------------------------------------------------------|
D|-----------------------------------------------------------------|
A|---------------3-------------------------3------3----------------|
E|---1---3/5-------5/6--------1---3---5------5--------------------|

guest
Wanna post a correction for this tab? Suggest correction