Oops, an error
Loading. Please wait.

I Need A Woman tab

version 2
version 2

Whole song

by McFly
6,067 views 1 this week
2 commentsread comments
1 2 3 4 5
x 3
add to favorites
×
Save as Personal and add changes to this tab that will be seen only by you. Learn more ›
×
You can save this tab as Personal to edit and correct it or add notes. All changes will be seen only by you. Learn more »
launch autoscroll
font size
0
reset
how to read this tab
guitar tuner
edit
Autoscroll
slow
fast
+/-
esc
set tempo
stop
                             I Need A Woman - McFly
-------------------------------------------------------------------------------
Tabbed by:Beappelin Floyd
Email:

Tuning:

riff:
e|----------------------|
B|----------------------|
G|----------------------|   
D|----------------------|
A|---------3-------1----|
E|--1--1/5-------3------|

intro: 4x riff

verse 1:

riff 1 x3 then
e|----------------------|
B|----------------------|
G|----------------------|   
D|----------------------|
A|---------3--5\3-------|
E|--1--1/5--------------|

riff 2 x2

e|----------------------|
B|----------------------|
G|----------------------|   
D|----------3----1------|
A|--1--1/5-----3--------|
E|----------------------|

riff 1 x2

verse 2:

riff 1 x3 then
e|----------------------|
B|----------------------|
G|----------------------|   
D|----------------------|
A|---------3--5\3-------|
E|--1--1/5--------------|

riff 2 x2

e|----------------------|
B|----------------------|
G|----------------------|   
D|----------3----1------|
A|--1--1/5-----3--------|
E|----------------------|

riff 1 x2

Pre Chorus:

C                        
When it gets to midnight,
  
Bb  C
   I'm in my bed alone.

Bb  C               
   Your all I want,

Bb  C  
   your all I need.

Bb  C
   It's cold in the night but I'm looking for the heat baby

Chorus:

F            Am    
I, I need a woman. 
         Bb         
Not any woman 
        F                 C
but a woman who needs me too.

Let me tell you baby

F            Am              Bb         F                  C
I, I need a woman. Not any woman but a woman who needs me too.
Hey! So how about you

Intro
Verse 1
Verse 2
Prechorus
Chorus
Intro (riff x2 not x4)
Verse 3
Prechorus
Chorus until the end



            
            
Suggest correction
Creating personal tab
Creating personal tab
You can edit any tab online and save it as your Personal.

You can edit, replace or remove any tab part or add personal notes – all changes will be seen only by you.

Personal tabs can be accessed anytime from any device, even offline.
Learn more »
Give kudos to tab author, rate the tab!
1 2 3 4 5
comments
print report bad tab
2 comments total.
0 reply
skatepalooza 135 Nov 23, 2010 03:42 PM

The chords are right.... not the intro

A-----------3-1-------
E-----1-3s5--3-1-------

Then when it changes, to Im alone

D----------3-1------
A-----1-3s5-3-1-----
E-------------------

-1 reply
TheCorrupted8 10 Apr 03, 2011 07:33 AM

This:
F Am Bb F C
I, I need a woman. Not any woman but a woman who needs me too.

Should be:
F C Bb Dm C
I, I need a woman. Not any woman but a woman who needs me too.

guest
You may want to rate the tab now too:
select rating
Wanna post a correction for this tab? Suggest correction