Oops, an error
Loading. Please wait.

Ill Be Your Man chords

by McFly
14,402 views 3 this week
4 commentsread comments
1 2 3 4 5
x 4
add to favorites
×
Save as Personal and add changes to this tab that will be seen only by you. Learn more ›
×
You can save this tab as Personal to edit and correct it or add notes. All changes will be seen only by you. Learn more »
launch autoscroll
font size
0
reset
transpose
0
reset
simplify chords
display chords
guitar tuner
edit
Autoscroll
slow
fast
+/-
esc
set tempo
stop
Author
Strumming
There is no strumming pattern for this song yet. and get +5 IQ
Here's my shot at tabbing this song, I love it! Corrections welcome.

Intro Riff:
|------------------------------------------------------|
|------------------------------------------------------|
|----------------------------------------------------- |
|-------------------------------4----------------------|
|------4--------------------4-7---4-7---4p2p0----------|
|--4-7---4-7----4p2p0-5-----------------------0--------| x2

Intro Chords: E, A5
E:  x22100
A5: 002200

Verse 1:
E                          A5
Been all around the world,
                           E
I've never met a girl,
                           A5
That does the things you do,
                           
And puts me in the mood,
    E                           
To love you, and treat you right,
    A5                             
So come here, and close your eyes,
E                             
Lie back, release your mind,
            A5
And let the world fall down when I'm by your side.




Chorus:
E    F#m G#m A   G#m         F#m
I'll be your man through the fire,
F#m                                        E
And I'll hold your hand through the flames,
E    F#m G#m A  G#m F#m
I'll be the one you desire,
A5                                A
Honey, 'cause I want you to understand,
A    G#m F#m E
I'll be your man.

|------------------0---|
|------------------0---|
|------------------2---|
|------------------2---|
|------4-----------0---|
|--4-7---4-7----4s-0---| 
     G#m F#m E
I'll be your man.

    E                       A5
|------------------------------------------------------|
|------------------------------------------------------|
|----------------------------------------------------- |
|-------------------------------4----------------------|
|------4--------------------4-7---4-7---4p2p0----------|
|--4-7---4-7----4p2p0-5-----------------------0--------|




Verse 2:
E                           A5
I can lay with you for days,
                        E
And years can pass away, 
                            A5
There's lipstick on my face,
                             
And I love the way you taste.
        E                             
And I'm right here, so lock the door,
            A5
Because you need me, but I need you more,
E                                     
And I don't care, about your mistakes,
             A5
Because they all went away when I found you Katie.



Chorus:
E    F#m G#m A   G#m         F#m
I'll be your man through the fire,
F#m                                        E
And I'll hold your hand through the flames,
E    F#m G#m A  G#m F#m
I'll be the one you desire,
A5    
Honey, 'cause I want you to understand,
A    G#m F#m E
I'll be your man.

|------------------0---|
|------------------0---|
|------------------2---|
|------------------2---|
|------4-----------0---|
|--4-7---4-7----4s-0---| 
     G#m F#m E
I'll be your man.


Guitar solo: E, A5

Final Chorus:
E    F#m G#m A   G#m         F#m
I'll be your man through the fire,
F#m                                        E
And I'll hold your hand through the flames,
E    F#m G#m A  G#m F#m
I'll be the one you desire,
A5    
Honey, 'cause I want you to understand,
A    G#m F#m E
I'll be your man.

|-17-17-17-17s16-16-16-16s14-14-14-14s12-12-12-12--|
|--------------------------------------------------|
|--------------------------------------------------|
|--------------------------------------------------|
|--------------------------------------------------|
|--------------------------------------------------| 
     G#m F#m E
I'll be your man.

E, A5 until end.

Suggest correction
Creating personal tab
Creating personal tab
You can edit any tab online and save it as your Personal.

You can edit, replace or remove any tab part or add personal notes – all changes will be seen only by you.

Personal tabs can be accessed anytime from any device, even offline.
Learn more »
comments
print report bad tab
4 comments total. Showing first comments.
0 reply
jrwagh333 52 Nov 07, 2010 09:03 AM

I am 90% sure this is 100% correct for the riff

|------------------------------------------------------|
|------------------------------------------------------|
|----------------------2---------------------------8-- |
|----------------------2------------2-4------------9---|
|-------2-4----------0--------0-2-4-----4~-4-2-2-7-7---|
|-0-2-4-----4~-4-2-2-----------------------------------|

+1 reply
jrwagh333 52 Nov 07, 2010 09:15 AM

Ignore above, this it it I think.

I am 90% sure this is 100% correct for the riff

|------------------------------------------------------|
|----------------------2-------------------------------|
|----------------------1---------------------------8-- |
|----------------------2------------2-4------------9---|
|-------2-4------------0------0-2-4-----4~-4-2-2-7-7---|
|-0-2-4-----4~-4-2-2-0-x-------------------------------|

0 reply
jairo.moralesma 10 Dec 28, 2013 01:18 AM

E F#m G#m A G#m F#m
I'll be your man through the fire,
F#m E
And I'll hold your hand through the flames,
E F#m G#m A G#m F#m
I'll be the one you desire,
(A5*)
Honey, 'cause I want you to understand,
A G#m F#m E
I'll be your man.

In the chorus the (A5*) is wrong... it's an open Bm:
|----0-----|
|----0-----|
|----4-----|
|----4-----|
|----2-----|
|----------|

guest
You may want to rate the tab now too:
select rating
Wanna post a correction for this tab? Suggest correction