Oops, an error
Loading. Please wait.

Just My Luck tab

version 1
version 1

Whole song

by McFly
17,762 views 1 this week
3 commentsread comments
1 2 3 4 5
x 15
add to favorites
×
Save as Personal and add changes to this tab that will be seen only by you. Learn more ›
×
You can save this tab as Personal to edit and correct it or add notes. All changes will be seen only by you. Learn more »
launch autoscroll
font size
0
reset
how to read this tab
guitar tuner
edit
Autoscroll
slow
fast
+/-
esc
set tempo
stop
McFly
Just My Luck
Album: Just My Luck
Tuning: Standard
Transcribed by Soch Hean


Intro Chords:   G  G/F#   Em7    D     Cadd9    D
                G  G/F#   Em7    D     Cadd9    D  G

Intro Riff:
|-----------------------------------------------------|
|-15------12------10------8------8--7--8-10-----------|
|----14~-----12~-----11~----9~------------------------|
|-----------------------------------------------------|
|-----------------------------------------------------|
|-----------------------------------------------------|

|-----------------------------------------------------|
|-15------12------10------8------8--7--8-10--8~-------|
|----14~-----12~-----11~----9~------------------------|
|-----------------------------------------------------|
|-----------------------------------------------------|
|-----------------------------------------------------|


Verse:
G       Bm      C           D
You and I have got a lot in common
G   Bm    C            D
We share all the same problems
Em                 A                 Dsus D
Luck and love and life aren't on our side

(Riff played during verse)
|-15-15-15-15-15-15-15-15-15-15-14-14-12-12-14-14---|
|-15-15-15-15-15-15-15-15-15-15-15-15-15-15-15-15---|
|---------------------------------------------------|
|---------------------------------------------------|
|---------------------------------------------------|
|---------------------------------------------------|

|-15-15-15-15-15-15-15-15-15-15-14-14-12-12-14-14-12--|
|-15-15-15-15-15-15-15-15-15-15-15-15-15-15-15-15-15--|
|-----------------------------------------------------|
|-----------------------------------------------------|
|-----------------------------------------------------|
|-----------------------------------------------------|
G   Bm       C                  D
I'm in the wrong place at the wrong time
G   Bm      C             D
Always the last one in a long line
Em           A                    Dsus D  D  B
Waiting for something to turn out right,  right


Chorus:
Cadd9 D          G   G/F# Em
I'm starting to fall in love

(Played during -love-)
|-----------------------------|
|-----------------1--0--------|
|-0---------------------2--0--|
|----4--2~----1---------------|
|-----------------------------|
|-----------------------------|
Cadd9  D           B
It's getting too much
Cadd9  D        G  G/F# Em
Not often that I slip  up

(Played during -up-)
|-------------|
|-------------|
|-0-----------|
|----4--2~----|
|-------------|
|-------------|
Cadd9  D       G
It's just my luck

Riff:
|-----------------------------------------------------|
|-15------12------10------8------8--7--8-10--8~-------|
|----14~-----12~-----11~----9~------------------------|
|-----------------------------------------------------|
|-----------------------------------------------------|
|-----------------------------------------------------|


Verse 2:
G    Bm         C             D
Rain clouds are gathering in numbers
G    Bm      C           D
Just when I put away my jumper
Em             A                 Dsus D
Luck and love still aren't on my side 

(Riff played during verse)
|-15-15-15-15-15-15-15-15-15-15-14-14-12-12-14-14---|
|-15-15-15-15-15-15-15-15-15-15-15-15-15-15-15-15---|
|---------------------------------------------------|
|---------------------------------------------------|
|---------------------------------------------------|
|---------------------------------------------------|

|-15-15-15-15-15-15-15-15-15-15-14-14-12-12-14-14-12--|
|-15-15-15-15-15-15-15-15-15-15-15-15-15-15-15-15-15--|
|-----------------------------------------------------|
|-----------------------------------------------------|
|-----------------------------------------------------|
|-----------------------------------------------------|
G Bm     C             D
I still refuse to be a skeptic
G        Bm  C              D
Cause I know I could still correct this
Em          A               Dsus D   D  B
Maybe this will be my lucky night,  night


Chorus:
Cadd9 D          G   G/F# Em
I'm starting to fall in love
Cadd9 D           B
It's getting too much
Cadd9    D          G G/F# Em
It's not often that I slip up
Cadd9 D       G    Cadd9    G   D
It's just my luck


Interlude:
G             Cadd9         G             D
Just my luck, just my luck, just my luck, now (x4)

Something to turn out right
Waiting for something
I'm waiting for something
To turn out right


Guitar Solo:
|---------------12-12-------12-12-------12-12---------------0-------------------|
|---------------12-12-------12-12-------12-12---------------0-------------------|
|---------14b16-------14b16-------14b16-------14b16r-12~----0-----------12-14---|
|-------------------------------------------------------------12-12h=14---------|
|-------------------------------------------------------------------------------|
|-3s=15\------------------------------------------------------------------------|

|--------------------------8-9-10-10b12---------------------------------|
|------------------0-10b12--------------10pb11-8~--10-------------------|
|-14b16r-12-11~---------------------------------------9~----------------|
|-----------------------------------------------------------------------|
|-----------------------------------------------------------------------|
|-----------------------------------------------------------------------|

|-3s8-8-7-7-8-8-7--7s=14-14-14-14-14-14-14-14-14s15--15-15-15-----------|
|-3s8-8-8-8-8-8-8-------------------------------------------------------|
|-----------------------------------------------------------------------|
|-----------------------------------------------------------------------|
|-----------------------------------------------------------------------|
|-----------------------------------------------------------------------|


Chorus:
Cadd9 D          G   G/F# Em
I'm starting to fall in love
Cadd9 D           B
It's getting too much
Cadd9 D        G  G/F# Em
Not often that I slip  up
Cadd9 D       G
It's just my luck

Riff:
|-----------------------------------------------------|
|-15------12------10------8------8--7--8-10-----------|
|----14~-----12~-----11~----9~------------------------|
|-----------------------------------------------------|
|-----------------------------------------------------|
|-----------------------------------------------------|

It's just my luck
|-----------------------------------------------------|
|-15------12------10------8------8--7--8-10\----------|
|----14~-----12~-----11~----9~------------------------|
|-----------------------------------------------------|
|-----------------------------------------------------|
|-----------------------------------------------------|


Outro: Luck...
  Em   D      A         Cadd9
|-0----2-2-2--0---------3------|
|-0----3-3-3--2---------3------|
|-0----2-2-2--2---------0------|
|-2----0-0-0--2---------2------|
|-2-----------0---0--2--3------|
|-0----------------------------|

Chords:
G:     320033
C:     x32010
Cadd9: x32033
D:     xx0232
Dsus:  xx0233
Bm:    x24432
Em:    022000
Em7:   022033
A:     x02220
B:     x2444x

Legend:
s - slide
h - hammeron
b - bend
pb - prebend

            
            
Suggest correction
Creating personal tab
Creating personal tab
You can edit any tab online and save it as your Personal.

You can edit, replace or remove any tab part or add personal notes – all changes will be seen only by you.

Personal tabs can be accessed anytime from any device, even offline.
Learn more »
comments
print report bad tab
3 comments total.
0 reply
mcfly_dude 41 Jul 04, 2006 03:48 AM

ace tab :D i luuuurve this song :D real cute! thnx loads :D!!!

0 reply
eiim 448 Jan 07, 2009 10:59 AM

It is almost perfect but I just have one correction:

[Em]Waiting for [A]something to turn out [Dsus]right[D], [C]right[Bm]
I mean C instead of the second D..

:)

0 reply
noobboyy 41 Mar 21, 2010 04:37 AM

u should make a bass tab for this!

cheers

guest
You may want to rate the tab now too:
select rating
Wanna post a correction for this tab? Suggest correction