Oops, an error
Loading. Please wait.

Lies bass

version 3
version 3

Whole song

by McFly
1,870 views 1 this week
1 commentread comment
1 2 3 4 5
2 more votes to show rating
add to favorites
×
Save as Personal and add changes to this tab that will be seen only by you. Learn more ›
×
You can save this tab as Personal to edit and correct it or add notes. All changes will be seen only by you. Learn more »
launch autoscroll
font size
0
reset
guitar tuner
edit
Autoscroll
slow
fast
+/-
esc
set tempo
stop
Author
Song: Lies
Artist: McFly
Album: Radio:ACTIVE
Bass Player: Dougie Poynter
Tuning: Standard

Tabbed By : posem21uk  


| /  slide up
| \  slide down
| h  hammer-on
| p  pull-off
| ~  vibrato
| +  harmonic
| x  Mute note
| <> Bend note



Intro (0:05)

G|-------------------------------------------------------------------------------|
D|-------------------------------------------------------------------------------|
A|--5--5-5-5-5-5-5-55--------------------------------------------------4-4-4-44--|
E|--------------------6-66-6-6-6-6--6-66--7-77-7-7-7-7--7-77--6-66-6-6-----------|


Verse (0:16)


G|-------------------------------------------------------------|
D|-------------------------------------------------------------|
A|-5--5--5-----------------------4--7--5-----------------------|   x2
E|----------8--6--6--6--6--5--5-----------0--1--3--5-----------|


Pre-Chorus (0:36)


G|-----------------------------------------------------------------------------|
D|-----------------------------------------------------------------------------|
A|-------------------4--7--5----------------------------------------------4-7--|
E|-6--6--6--6--5--5-----------0--1--3--5----6--6--6--6--5---------------5------|


Chorus (0:48)


G|--------------------------------------------------------|
D|--------------------------------------------------------|
A|-5--55-5--57------------8------------10-------4---------|    x2
E|-------------6--66-6--6---7--77-7--7----6-------5-------|


Intro Riff (1:08)

G|-------------------------------------------------------------------------------|
D|-------------------------------------------------------------------------------|
A|--5--5-5-5-5-5-5-55--------------------------------------------------4-4-4-44--|
E|--------------------6-66-6-6-6-6--6-66--7-77-7-7-7-7--7-77--6-66-6-6-----------|


Verse (1:19)


G|-------------------------------------------------------------|
D|-------------------------------------------------------------|
A|-5\----------------------------4--7--5-----------------------|
E|----------8--6--6--6--6--5--5-----------0--1--3--5-----------|


G|-------------------------------------------------------------|
D|-------------------------------------------------------------|
A|-5--5--5-----------------------4--7--5-----------------------|   
E|----------8--6--6--6--6--5--5-----------0--1--3--5-----------|


Pre-Chorus (1:39)


G|------------------------------------|
D|------------------------------------|
A|-------------------------------4-7--|
E|-6--6--6--6--5---------------5------|


Chorus (1:44)


G|-------------------------------------------------------------------|
D|-------------------------------------------------------------------|
A|-5--55-5--57-----8---------5------10---------5-----------4---------|   x2
E|-------------6-------6-6-7----7--------7-6-7----6----------5-------|

[The timing on this part is quite tricky, so listen to the track carefully]


Bridge (2:04)


G|---------------------7----------------------------------------|
D|----------5-7------7---7---7---------------------5-7----------|
A|--------5-----5----------5---------------5--7--8--------------|
E|-3---33-----------------------5--55-5-------------------------|


G|-----------------------7-----------------------------------------------|
D|----------5-7------7-------5-------------------------------------------|
A|--------5-----5--------------------------------------------------------|
E|-3---33------------------------5-5-5-5-5-5-5-5-17-17-17-17-17-17-17-17-|


Bass Solo (2:24)

			                                 h   h
G|-----------------------------------------------------------------------------|
D|----3-5-7-5-3---3-----3-5-<5>---------3----3-5-7-5-3---3---------------------|
A|-5------------5-----1---------3^5-3^5----2-----------5-----------------------|
E|------------------------------------------------------------6-6---5---5/17\--|

[I used the <> symbols to show that you need to bend the note]


Intro Riff (2:34)


G|-------------------------------------------------------------------------------|
D|-------------------------------------------------------------------------------|
A|--5--5-5-5-5-5-5-55--------------------------------------------------4-4-4-44--|
E|--------------------6-66-6-6-6-6--6-66--7-77-7-7-7-7--7-77--6-66-6-6-----------|


Pre Chorus (2:44)


G|---------------------------------------------------------------------------------|
D|-------------------10---------------5-7------------------------------------------|
A|-----------------10--10----5--7--8-------------------------------------------4-7-|
E|-6------1-6---8--------8------------------6--6--6--6—--5\---5\---5\--------5-----|


Chorus (2:59)


G|-------------------------------------------------------------------|
D|-------------------------------------------------------------------|
A|-5--55-5--57-----8---------5------10---------5-----------4---------|   x2
E|-------------6-------6-6-7----7--------7-6-7----6----------5-------|

[This is the same as the second Chorus, so again... listen out for the tricky parts]


Outro (3:19)


G|--------------------------------------------------------------------------------|
D|--------------------------------------------------------------------------------|
A|--5--55-5-5-5-5-5-55--------------------------------------------------4-4-4-44--|
E|---------------------6-66-6-6-6-6--6-66--7-77-7-7-7-7--7-77--6-66-6-6-----------|


G|--------------------------------------------------------------------------------|
D|--------------------------------------------------------------------------------|
A|--5--55-5-5-5-5-5-55--------------------------------------------------4-4-4-44--|
E|---------------------6-66-6-6-6-6--6-66--3-33-3-3-3-3--3-33--6-66-6-6-----------|


Ending (3:40)


G|--------------------------------|
D|----3--5--7--5--3---------------|
A|-5-----------------5--3--5------|
E|--------------------------------|


===============================================================================

Suggest correction
Creating personal tab
Creating personal tab
You can edit any tab online and save it as your Personal.

You can edit, replace or remove any tab part or add personal notes – all changes will be seen only by you.

Personal tabs can be accessed anytime from any device, even offline.
Learn more »
Give kudos to tab author, rate the tab!
1 2 3 4 5
comments
print report bad tab
1 comment total.
0 reply
posem21uk 541 Sep 22, 2010 07:49 AM

The 'h's are supposed to be above the '^' symbols in the Bass Solo section.

It's to show that they're hammer-ons, but I must have moved them over too far by accident!

guest
You may want to rate the tab now too:
select rating
Wanna post a correction for this tab? Suggest correction