Oops, an error
Loading. Please wait.

Met This Girl chords

by McFly
568 views 6 this week
no commentswrite comment
1 2 3 4 5
1 last vote to show rating
add to favorites
×
Save as Personal and add changes to this tab that will be seen only by you. Learn more ›
×
You can save this tab as Personal to edit and correct it or add notes. All changes will be seen only by you. Learn more »
launch autoscroll
font size
0
reset
transpose
0
reset
display chords
guitar tuner
edit
Autoscroll
slow
fast
+/-
esc
set tempo
stop
Author
Strumming
There is no strumming pattern for this song yet. and get +5 IQ
Tabbed by: JimBlenderBR



- Intro: - Only Bass



- Verse 1:


Riff played through the verse until "laughing..."
e|----------------------------------------------------|
B|----------------------------------------------------|
G|----------------------------------------------------|
D|----------------------------0-4-5-------------------|
A|--0-4-5--------0-4-5--------------3-5----0-4-5------|
E|--------3-5----------3-5-----------------------3-5--|


Well I met this girl, just the other day,
I hope I don't regret, the things that I said now,

                G                               E
And when we're laughing joking with each other now



- Verse 2:


Riff played through the verse until "laughing..."
e|----------------------------------------------------|
B|----------------------------------------------------|
G|----------------------------------------------------|
D|----------------------------0-4-5-------------------|
A|--0-4-5--------0-4-5--------------3-5----0-4-5------|
E|--------3-5----------3-5-----------------------3-5--|


I'm glad I met this girl, She didn't walk away,
I think she was impressed and was having a good time,

                G    
And when we're laughing joking with each other,
E
Spending all our time together...



- Chorus:

     D         A       G       A
When she walks in the room my heart goes boom!
D     A     G     A
Ba ba ba ba ba da ba, 
     D         A       G       A
When she walks in the room my heart goes boom!
D     A     G     A
Ba ba ba ba ba da ba,
    G
I tried to take her home but she said,
G#                 A
You're no good for me...



- Verse 2:


Riff played through the verse until "really..."
e|------------------------------------------------------------------------------|
B|------------------------------------------------------------------------------|
G|------------------------------------------------------------------------------|
D|------------------------------------------------------0-4-5-------------------|
A|--0-4-5--------0-4-5--------0-4-5--------0-4-5--------------3-5----0-4-5------|
E|--------3-5----------3-5----------3-5----------3-5----------------------3-5---|


She's got a pretty face, such a lovely name,
I don't want my friends to see, they might take her away from me,
She's one I won't forget, in a long long long time,

       G
Now I really want the world to see,
E
That she is the one for me,



- Chorus:

     D         A       G       A
When she walks in the room my heart goes boom!
D     A     G     A
Ba ba ba ba ba da ba, 
     D         A       G       A
When she walks in the room my heart goes boom!
D     A     G     A
Ba ba ba ba ba da ba,
    G
I tried to take her home but she said,
G#                 A
You're no good for me



- Bridge:

C#                              F#m           B
  The first time that I saw her she stole my heart,
Dm                          F                      E
  And if we were together, nothing could tear us apart,



- Chorus:

When she walks in the room my heart goes boom 
When she walks in the room my heart goes boom 
When she walks in the room my heart goes boom 


    G
I tried to take her home but she said,
E
You're no good for me



     D         A       G       A
When she walks in the room my heart goes boom!
D     A     G     A
Ba ba ba ba ba da ba, 
     D         A       G       A
When she walks in the room my heart goes boom!
D     A     G     A
Ba ba ba ba ba da ba,
    G
I tried to take her home but she said,
E
You're no good for me



- Ending:

E     B     A     B
Ba ba ba ba ba da ba, 
E     B     A     B
Ba ba ba ba ba da ba, 
E     B     A     B
Ba ba ba ba ba da ba, 
E     B     A     B
Ba ba ba ba ba da ba, 
E     B     A     B
Ba ba ba ba ba da ba, 
E     B     A     B
Ba ba ba ba ba da ba, 
E     B     A     B
Ba ba ba ba ba da ba, 
E     B     A     B
Ba ba ba ba ba da ba, 
A            A B  A B  A B
Yeahh, yooh


__________
Tabbed by: JimBlenderBR

            
            
Suggest correction
Creating personal tab
Creating personal tab
You can edit any tab online and save it as your Personal.

You can edit, replace or remove any tab part or add personal notes – all changes will be seen only by you.

Personal tabs can be accessed anytime from any device, even offline.
Learn more »
Give kudos to tab author, rate the tab!
1 2 3 4 5
comments
print report bad tab
guest
You may want to rate the tab now too:
select rating
Wanna post a correction for this tab? Suggest correction