Oops, an error
Loading. Please wait.

Not Alone Tab

version 1
version 1

Intro

Whole song

4,558 views 1 this week
1 commentread comment
1 2 3 4 5
x 3
add to favorites
launch autoscroll
font size
0
reset
how to read this tab
guitar tuner
×
Best way to learn
"Not Alone"
Autoscroll
slow
fast
+/-
esc
set tempo
stop
1)-11-12-11-9-7---9-7-5-4-5--5-4-2-0--------|
2)------------------------------------------|
3)------------------------------------------|
4)------------------------------------------|
5)------------------------------------------|
6)------------------------------------------|

1)---0-2-4-2-0------------------------------|
2)-1-----------3-1--------------------------|
3)------------------------------------------|
4)------------------------------------------|
5)------------------------------------------|
6)------------------------------------------|

1)-11-12-14-----16-16-16-16-16--12-11-9-7-5-|
2)----------11------------------------------|
3)------------------------------------------|
4)------------------------------------------|
5)------------------------------------------|
6)------------------------------------------|
Suggest correction
Give kudos to tab author, rate the tab!
1 2 3 4 5
comments
print report bad tab
1 comment total.
0 reply
Mwaha93 10 Dec 30, 2006 03:25 PM

To my ears, the tab is okay, but i think it sounds better like this: (iv hardly changed it appart from minor alterations to the 2nd line)

1)-11-12-11-9-7---9-7-5-4-5--5-4-2-0--------|
2)------------------------------------------|
3)------------------------------------------|
4)------------------------------------------|
5)------------------------------------------|
6)------------------------------------------|

1)---0-2-4-2-0------------------------------|
2)-0-----------4-2--------------------------|
3)------------------------------------------|
4)------------------------------------------|
5)------------------------------------------|
6)------------------------------------------|

1)-11-12-14-----16-16-16-16-16--12-11-9-7-5-|
2)----------11------------------------------|
3)------------------------------------------|
4)------------------------------------------|
5)------------------------------------------|
6)------------------------------------------|

guest
You may want to rate the tab now too:
select rating
Wanna post a correction for this tab? Suggest correction