Oops, an error
Loading. Please wait.

Nowhere Left To Run tab

version 1
version 1

Whole song

by McFly
5,808 views 1 this week
no commentswrite comment
1 2 3 4 5
x 11
add to favorites
×
Save as Personal and add changes to this tab that will be seen only by you. Learn more ›
×
You can save this tab as Personal to edit and correct it or add notes. All changes will be seen only by you. Learn more »
launch autoscroll
font size
0
reset
how to read this tab
guitar tuner
edit
Autoscroll
slow
fast
+/-
esc
set tempo
stop
Author
Difficulty
intermediate
-------------------------------------------------------------------------------
                           No Where Left To Run - McFly
-------------------------------------------------------------------------------
Tabbed by: rjs92
Email: http://profile.ultimate-guitar.com/rjs92/

     So, First proper tab i've written for the site. I figured as the album
     has only been released to SuperCity Pioneers, as of me writting this, I'd
     tab it so every one can give it ago as soon as they get the album on the
     normal release date. I'm.... 98% sure that this is right, a few bits here
     and there that might not be exact, but they all fit, unlike some tabs
     which make you wonder if people have hearing problems when they write the
     chords down.

     Anyway, enjoy...
     

Tuning:Standard (EADGBe)

Intro & Verse 1:
(Danny)
e|--------------------------------------|
B|--3-33-3--3-33-3-3--3-33-3--3-33-3-3--|     (All chords finger plucked)
G|--2-22-2--2-22-2-2--0-00-0--0-00-0-0--|
D|--0-00-0--3-33-3-3--------------------|     x4
A|--------------------3-33-3--2-22-2-2--|
E|--------------------------------------|

e|-------------------------------------|
B|--3-33-3--3-33-3-3--3-33-0-3-33-3-3--|
G|--0-00-0--0-00-0-0--0-00-2-2-22-2-2--|
D|-------------------------------------|     x1
A|--1-11-1--3-33-3-3--0-00-0-0-00-0-0--|
E|-------------------------------------|

Synth Pre-chorus:
e|--0--0--0--0--|
B|--3--3--3--3--|     (Not actually played, 
G|--2--2--2--0--|      but sound okay if just 
D|--0--3--0--0--|      strummed out)
A|--0--0--3--1--|
E|--------------|

Chorus 1:
(Tom)
e|-----------------------------------------------|
B|-----------------------------------------------|     (Strumming is fairly
G|-----------------------------------------------|      easy, just play
D|--77777777-1010101010101010-55555555-33333333--|      something that fits)
A|--55555555-8-8-8-8-8-8-8-8--33333333-11111111--|
E|-----------------------------------------------|

(Danny)
e|----------------------------------------|
B|----------------------------------------|     (let all chords ring)
G|--7-9-10----10-12-14----5-7-9----3-5-7--|
D|--x-x-x-----x--x--x-----x-x-x----x-x-x--|
A|--5-7-8-----8--10-12----3-5-7----1-3-5--|
E|----------------------------------------|

Verse 2: (All chords finger plucked)
(Danny)
e|-------------------------------------------------------------------------|
B|--3-33-3--3-33-3-3--3-33-3--3-33-3-3--3-33-3--3-33-3-3--3-33-0-3-33-3-3--|    
G|--2-22-2--2-22-2-2--0-00-0--0-00-0-0--0-00-0--0-00-0-0--0-00-2-2-22-2-2--|
D|--0-00-0--3-33-3-3-------------------------------------------------------|
A|--------------------3-33-3--2-22-2-2--1-11-1--3-33-3-3--0-00-0-0-00-0-0--|
E|-------------------------------------------------------------------------|

8 count pause:
e|-----|
B|--3--|
G|--2--|    (Again, this isn't actually played but
D|--0--|     sounds alright if strummed out once)
A|--0--|
E|-----|

Chorus 2:
(Tom)
e|-----------------------------------------------|
B|-----------------------------------------------|     (Strumming is fairly
G|-----------------------------------------------|      easy, just play
D|--77777777-1010101010101010-55555555-33333333--|      something that fits)
A|--55555555-8-8-8-8-8-8-8-8--33333333-11111111--|
E|-----------------------------------------------|     x2

(Danny)
e|----------------------------------------|
B|----------------------------------------|     (let all chords ring)
G|--7-9-10----10-12-14----5-7-9----3-5-7--|
D|--x-x-x-----x--x--x-----x-x-x----x-x-x--|     x2
A|--5-7-8-----8--10-12----3-5-7----1-3-5--|
E|----------------------------------------|

Break:
(Danny)
e|-----------------------------------|
B|--3-33-3-3-33-3-3-3-33-3-3-33-3-3--|     (All chords finger plucked)
G|--2-22-2-2-22-2-2-2-22-2-2-22-2-2--|
D|--0-00-0-0-00-0-0-0-00-0-0-00-0-0--|     
A|-----------------------------------|
E|-----------------------------------|

Pre Chorus:
(Danny)
e|----------------------------------------|
B|----------------------------------------|     (let all chords ring)
G|--7-9-10----10-12-14----5-7-9----3-5-7--|
D|--x-x-x-----x--x--x-----x-x-x----x-x-x--|
A|--5-7-8-----8--10-12----3-5-7----1-3-5--|
E|----------------------------------------|

Chorus 2:
(Tom)
e|-----------------------------------------------|
B|-----------------------------------------------|     (Strumming is fairly
G|-----------------------------------------------|      easy, just play
D|--77777777-1010101010101010-55555555-33333333--|      something that fits)
A|--55555555-8-8-8-8-8-8-8-8--33333333-11111111--|
E|-----------------------------------------------|

e|--------------------------------------------------|
B|--------------------------------------------------|     (Last chord played
G|--------------------------------------------------|      right at the end
D|--77777777-1010101010101010-55555555-3333-555555--|      of the section,
A|--55555555-8-8-8-8-8-8-8-8--33333333-1111-333333--|      before the bridge)
E|--------------------------------------------------|

(Danny)
e|----------------------------------------|
B|----------------------------------------|     (let all chords ring)
G|--7-9-10----10-12-14----5-7-9----3-5-7--|
D|--x-x-x-----x--x--x-----x-x-x----x-x-x--|     x2
A|--5-7-8-----8--10-12----3-5-7----1-3-5--|
E|----------------------------------------|

Bridge:
(Tom)
e|---------------------------------------|
B|---------------------------------------|     (Again, strumming is easy to
G|---------------------------------------|      figure out, just play
D|--33333333-55555555-7777777777777-555--|      something that fits)
A|--11111111-33333333-5555555555555-333--|
E|---------------------------------------|     x3

e|---------------------------------------|
B|---------------------------------------|
G|-----------------------------22222222--|
D|--33333333-55555555-33333333-22222222--|
A|--11111111-33333333-11111111-00000000--|
E|---------------------------------------|

(Danny)
e|---------------------------------------|
B|---------------------------------------|     (Again, strumming is easy to
G|---------------------------------------|      figure out, just play
D|--33333333-55555555-777777777777777----|      something that fits)
A|--11111111-33333333-555555555555555----|
E|---------------------------------------|     x3

e|----------------------------------------------------------------------|
B|----------------------------------------------------------------------|
G|--7777777777777777-999999999999999-7777777777777777-6666666666666666--|
D|--xxxxxxxxxxxxxxxx-xxxxxxxxxxxxxxx-xxxxxxxxxxxxxxxx-xxxxxxxxxxxxxxxx--|
A|--5555555555555555-777777777777777-5555555555555555-4444444444444444--|
E|----------------------------------------------------------------------|

Outro:
(Danny)
e|--------------------------------------|
B|--3-33-3--3-33-3-3--3-33-3--3-33-3-3--|     (All chords finger plucked)
G|--2-22-2--2-22-2-2--0-00-0--0-00-0-0--|
D|--0-00-0--3-33-3-3--------------------|
A|--------------------3-33-3--2-22-2-2--|
E|--------------------------------------|



************************************
| x  =  Mute note
************************************
 
Suggest correction
Creating personal tab
Creating personal tab
You can edit any tab online and save it as your Personal.

You can edit, replace or remove any tab part or add personal notes – all changes will be seen only by you.

Personal tabs can be accessed anytime from any device, even offline.
Learn more »
comments
print report bad tab
guest
You may want to rate the tab now too:
select rating
Wanna post a correction for this tab? Suggest correction