Oops, an error
Loading. Please wait.

Party Girl bass

version 1
version 1

Whole song

Interactive

by McFly
4,837 views 1 this week
no commentswrite comment
1 2 3 4 5
x 3
add to favorites
×
Save as Personal and add changes to this tab that will be seen only by you. Learn more ›
×
You can save this tab as Personal to edit and correct it or add notes. All changes will be seen only by you. Learn more »
launch autoscroll
font size
0
reset
guitar tuner
edit
Autoscroll
slow
fast
+/-
esc
set tempo
stop
Mcfly - Party Girl

+ Vid at the end using this Tab

I tabbed this one using the live version so if your playing this along to the track, 
the second verse as you do the 1st

INTRO

G|---------------------------------------------------|
D|-----------------------------------4---------------|
A|------4~-----------------------------4-------------|
E|-0~-------44--44-44-44-4-4-----0~--------44-44-44--|


VERSE

G|----------------------------------------------------- |x4|
D|-4-6-------6------6---4-6-4-6-------6------6---4----- |x4|
A|-------------------------------------------------6--- |x4|
E|-----4---4---4--4---4---------4---4---4--4---4------- |x4|


Chorus

G|--------------------------------------------------- |x4|
D|-------------4-4----------------------------------- |x4|
A|-----------------4-4-4-4-4-4-6-6------------------- |x4|
E|-0-0-0-0-0-0---------------------44-44-44-44-4-4--- |x4|


VERSE 2


G|----------------------------------------------------- |x2|
D|-4-6-------6------6---4-6-4-6-------6------6---4----- |x2|
A|-------------------------------------------------6--- |x2|
E|-----4---4---4--4---4---------4---4---4--4---4------- |x2|


G|------------------------------------------------|
D|-4-6-------------4-3--4-6-------6------6---4----|
A|---------------------------------------------6--|
E|-----4-4----4-4-----------4---4---4--4---4------|


G|--------------------------------------------------|
D|----------------6---4-6-----6------6--------------|
A|--------------------------------------------------|
E|--4-4----4-4--4---4-------4---4--4---4--4-6-7-9---|


Interlude


G|-------------------------------------------------------------------------------|
D|-------------------------------------------------------------------------------|
A|-11-11-11-11-11-11-11-11-19-19-19-19-19-19-18-18-15-15-15-15-15-15-18-18-11-11-|
E|-------------------------------------------------------------------------------|


sLIDE


G|--------|
D|--------|
A|-2/\----|
E|--------|

Last chorus


G|--------------------------------------------------- |x2|
D|-------------4-4----------------------------------- |x2|
A|-----------------4-4-4-4-4-4-6-6------------------- |x2|
E|-0-0-0-0-0-0---------------------4-4-4-4-4-4-4-4--- |x2|


G|--------------------------------------------------------------- |x2|
D|-------------4-4----------------------------------------------- |x2|
A|-----------------4-4-4-4-4-4-6-6-6/11-6/11-6/11-6/11-6/11-11--- |x2|
E|-0-0-0-0-0-0--------------------------------------------------- |x2|


OUTRO


G|-----------------------------|
D|---6------6------6------6----|
A|-----------------------------|
E|-4---4--4---4--4---4--4---4~-|


Can slide up to this to finish it off nicely...


G|------|
D|------|
A|------|
E|-16---|

So thats everything you need to play this song!

I Have made a video were the bass will be more prominent here...

http://www.youtube.com/watch?v=ClvlWGKkPFA

If for some reason the video dosnt work when you come to look at it, look here and there 
be another uploaded...

www.youtube.com/user/HarryHopkinson

Anyway,

Have fun with it and Would be extremly gratefull if you could subscribe to me on youtube 
send me a message there with how you got on with this :)

            
            
Suggest correction
Creating personal tab
Creating personal tab
You can edit any tab online and save it as your Personal.

You can edit, replace or remove any tab part or add personal notes – all changes will be seen only by you.

Personal tabs can be accessed anytime from any device, even offline.
Learn more »
Give kudos to tab author, rate the tab!
1 2 3 4 5
comments
print report bad tab
guest
You may want to rate the tab now too:
select rating
Wanna post a correction for this tab? Suggest correction