Oops, an error
Loading. Please wait.

Party Girl tab

version 1
version 1

Whole song

Interactive

by McFly
9,850 views 1 this week
2 commentsread comments
1 2 3 4 5
1 last vote to show rating
add to favorites
×
Save as Personal and add changes to this tab that will be seen only by you. Learn more ›
×
You can save this tab as Personal to edit and correct it or add notes. All changes will be seen only by you. Learn more »
launch autoscroll
font size
0
reset
how to read this tab
guitar tuner
edit
Autoscroll
slow
fast
+/-
esc
set tempo
stop
Author
Difficulty
INTRO
       E
Ooh oh oh
   C#m        G#
Oh oh,  oh oh oh oh oh oh oh oh
       Em
Ooh oh oh
E   C#m        G#
Oh oh,  oh oh oh oh oh oh oh oh

VERSE
            
The clock hit 12, as she entered the room
|-------------------------------------------------|
|-------------------------------------------------|
|-------------------------------------------------|
|-------------4-6-------6------6---44-------------|
|-------------------------------------------------|
|-----------------4---4---4--4---4----------------|

But if looks could kill then we all would be doomed
|-------------------------------------------------|
|-------------------------------------------------|
|-------------------------------------------------|
|4-6-------6------6---44--------------------------|
|-------------------------------------------------|
|----4---4---4--4---4-----------------------------|

With just one kiss you're not able to move
|-------------------------------------------------|
|-------------------------------------------------|
|-------------------------------------------------|
|4-6-------6------6---44--------------------------|
|-------------------------------------------------|
|----4---4---4--4---4-----------------------------|


From her venomous lips and the poison perfume
|-------------------------------------------------|
|-------------------------------------------------|
|-------------------------------------------------|
|4-6-------6------6---44--------------------------|
|-------------------------------------------------|
|----4---4---4--4---4-----------------------------|

Yeah!


She started swaying so sexy and looking at me, and it got me
|-------------------------------------------------|
|-------------------------------------------------|
|-------------------------------------------------|
|4-6-------6------6---44--------------------------|
|-------------------------------------------------|
|----4---4---4--4---4-----------------------------|

Caught in a mind control
|-------------------------------------------------|
|-------------------------------------------------|
|-------------------------------------------------|
|4-6-------6------6---44--------------------------|
|-------------------------------------------------|
|----4---4---4--4---4-----------------------------|

This place is prison I'm chained up, I give up and I'm out of mercy
|-------------------------------------------------|
|-------------------------------------------------|
|-------------------------------------------------|
|4-6-------6------6---44--------------------------|
|-------------------------------------------------|
|----4---4---4--4---4-----------------------------|

She wouldn't let me go
|-------------------------------------------------|
|-------------------------------------------------|
|-------------------------------------------------|
|4-6-------6------6---4---------------------------|
|-------------------------------------------------|
|----4---4---4--4---4-----------------------------|

CHORUS
                      E               C#m
She said she likes to dance all by herself
                          G#
'Cause she's a party girl
              E            F    C#m
And she don't care for nobody else
                       G#
She's in her own world 
                                      E    F C#m      D# G#
I love this little party girl (Ooh oh oh oh oh oh oh oh oh)
                                      E    F C#m      D# G#
I love this little party girl (Ooh oh oh oh oh oh oh oh oh)

She's such a little party girl


VERSE
                      
I, I gotta leave this 
room, 'cause it's starting to spin
|-------------------------------------------------|
|-------------------------------------------------|
|-------------------------------------------------|
|4-6-------6------6---44--------------------------|
|-------------------------------------------------|
|----4---4---4--4---4-----------------------------|

But There's no escape from this mess that I'm in
|-------------------------------------------------|
|-------------------------------------------------|
|-------------------------------------------------|
|------------4-6-------6------6---44--------------|
|-------------------------------------------------|
|----------------4---4---4--4---4-----------------|

She can't resist the temptation is in
|-------------------------------------------------|
|-------------------------------------------------|
|-------------------------------------------------|
|------------4-6-------6------6---44--------------|
|-------------------------------------------------|
|----------------4---4---4--4---4-----------------|

So pull your collar up before she sinks her teeth in,
|-------------------------------------------------|
|-------------------------------------------------|
|-------------------------------------------------|
|------------4-6-------6------6---44--------------|
|-------------------------------------------------|
|----------------4---4---4--4---4-----------------|

Yeah!


She started swaying so sexy
|-------------------------------------------------|
|-------------------------------------------------|
|-------------------------------------------------|
|------------4-6-66-------------------------------|
|----------------66-------------------------------|
|----------------44-------------------------------|

And looking at me
|-------------------------------------------------|
|-------------------------------------------------|
|-------------------------------------------------|
|----------------66-------------------------------|
|----------------66-------------------------------|
|----------------44-------------------------------|

And it got me 

caught in a mind control
|-------------------------------------------------|
|-------------------------------------------------|
|-------------------------------------------------|
|4-6-------6------6---44--------------------------|
|-------------------------------------------------|
|----4---4---4--4---4-----------------------------|


This place is prison
|-------------------------------------------------|
|-------------------------------------------------|
|-------------------------------------------------|
|----------------66-------------------------------|
|----------------66-------------------------------|
|----------------44-------------------------------|

I'm chained up

I give up and
|-------------------------------------------------|
|-------------------------------------------------|
|-------------------------------------------------|
|----66-------------------------------------------|
|----66-------------------------------------------|
|----44-------------------------------------------|

I'm out of mercy
|-------------------------------------------------|
|-------------------------------------------------|
|-------------------------------------------------|
|--------------44---------------------------------|
|-------------------------------------------------|
|-------------------------------------------------|

She wouldn't let me go
|-------------------------------------------------|
|-------------------------------------------------|
|-------------------------------------------------|
|4-6-------6--------------------------------------|
|-------------------------------------------------|
|----4---4---4------------------------------------|

CHORUS
                      E               C#m
She said she likes to dance all by herself
                          G#
'Cause she's a party girl
              E            F    C#m
And she don't care for nobody else
                       G#
She's in her own world 
                                      E    F C#m      D# G#
I love this little party girl (Ooh oh oh oh oh oh oh oh oh)
                                      E    F C#m      D# G#
She's such a little party girl (Ooh oh oh oh oh oh oh oh oh)

She's such a little party girl

***(SYNTHESIZER)***

Such a little party girl

YEEEAH!

CHORUS
     E            F   C#m
She likes to dance all by herself
                  D#      G#
'Cause she's a party girl
          E           F    C#m
She don't care for nobody else
              D#       G#
She's in her own world 
                                      E    F C#m      D# G#
I love this little party girl (Ooh oh oh oh oh oh oh oh oh)
                                      E    F C#m      D# G#
She's such a little party girl (Ooh oh oh oh oh oh oh oh oh)

She's such a little party girl

*Ending*

|----------------------------------------------|
|----------------------------------------------|
|----------------------------------------------|
|44-6-----------------44-6---------------------|
|----------6-----6-----------------------------|
|-----4--4---4-4---4-------4~------------------|
Suggest correction
Creating personal tab
Creating personal tab
You can edit any tab online and save it as your Personal.

You can edit, replace or remove any tab part or add personal notes – all changes will be seen only by you.

Personal tabs can be accessed anytime from any device, even offline.
Learn more »
Give kudos to tab author, rate the tab!
1 2 3 4 5
comments
print report bad tab
2 comments total.
0 reply
jrwagh333 52 Aug 26, 2010 02:28 AM


CORRECTIONS:

E x799xx
Em 022xxx
C# x466xx
G# 466xxx
F x9(11)(11)xx
D# x688xx

INTRO
E
Ooh oh oh
C# G#
Oh oh, oh oh oh oh oh oh oh oh
Em
Ooh oh oh
F C# G#
Oh oh, oh oh oh oh oh oh oh oh

VERSE

The clock hit 12, as she entered the room
|-------------------------------------------------|
|-------------------------------------------------|
|-------------------------------------------------|
|-------------4-6-------6------6---44-------------|
|-------------------------------------------------|
|-----------------4---4---4--4---4----------------|

But if looks could kill then we all would be doomed
|-------------------------------------------------|
|-------------------------------------------------|
|-------------------------------------------------|
|4-6-------6------6---44--------------------------|
|-------------------------------------------------|
|----4---4---4--4---4-----------------------------|

With just one kiss you're not able to move
|-------------------------------------------------|
|-------------------------------------------------|
|-------------------------------------------------|
|4-6-------6------6---44--------------------------|
|-------------------------------------------------|
|----4---4---4--4---4-----------------------------|

From her venomous lips and the poison perfume
|-------------------------------------------------|
|-------------------------------------------------|
|-------------------------------------------------|
|4-6-------6------6---44--------------------------|
|-------------------------------------------------|
|----4---4---4--4---4-----------------------------|

Yeah!

She started swaying so sexy and looking at me, and it got me
|-------------------------------------------------|
|-------------------------------------------------|
|-------------------------------------------------|
|4-6-------6------6---44--------------------------|
|-------------------------------------------------|
|----4---4---4--4---4-----------------------------|

Caught in a mind control
|-------------------------------------------------|
|-------------------------------------------------|
|-------------------------------------------------|
|4-6-------6------6---44--------------------------|
|-------------------------------------------------|
|----4---4---4--4---4-----------------------------|

This place is prison I'm chained up, I give up and I'm out of mercy
|-------------------------------------------------|
|-------------------------------------------------|
|-------------------------------------------------|
|4-6-------6------6---44--------------------------|
|-------------------------------------------------|
|----4---4---4--4---4-----------------------------|

She wouldn't let me go
|-------------------------------------------------|
|-------------------------------------------------|
|-------------------------------------------------|
|4-6-------6------6---4---------------------------|
|-------------------------------------------------|
|----4---4---4--4---4-----------------------------|

CHORUS
E D# C#
She said she likes to dance all by herself
G#
'Cause she's a party girl
E F C#
And she don't care for nobody else
G#
She's in her own world
E D# C# D# G#
I love this little party girl (Ooh oh oh oh oh oh oh oh oh)
E F C# D# G#
I love this little party girl (Ooh oh oh oh oh oh oh oh oh)

She's such a little party girl

VERSE

I, I gotta leave this
room, 'cause it's starting to spin
|-------------------------------------------------|
|-------------------------------------------------|
|-------------------------------------------------|
|4-6-------6------6---44--------------------------|
|-------------------------------------------------|
|----4---4---4--4---4-----------------------------|

But There's no escape from this mess that I'm in
|-------------------------------------------------|
|-------------------------------------------------|
|-------------------------------------------------|
|------------4-6-------6------6---44--------------|
|-------------------------------------------------|
|----------------4---4---4--4---4-----------------|

She can't resist the temptation is in
|-------------------------------------------------|
|-------------------------------------------------|
|-------------------------------------------------|
|------------4-6-------6------6---44--------------|
|-------------------------------------------------|
|----------------4---4---4--4---4-----------------|

So pull your collar up before she sinks her teeth in,
|-------------------------------------------------|
|-------------------------------------------------|
|-------------------------------------------------|
|----

0 reply
jrwagh333 52 Aug 26, 2010 02:32 AM

So pull your collar up before she sinks her teeth in,
|-------------------------------------------------|
|-------------------------------------------------|
|-------------------------------------------------|
|------------4-6-------6------6---44--------------|
|-------------------------------------------------|
|----------------4---4---4--4---4-----------------|

Yeah!

She started swaying so sexy
|-------------------------------------------------|
|-------------------------------------------------|
|-------------------------------------------------|
|------------4-6-66-------------------------------|
|----------------66-------------------------------|
|----------------44-------------------------------|

And looking at me
|-------------------------------------------------|
|-------------------------------------------------|
|-------------------------------------------------|
|----------------66-------------------------------|
|----------------66-------------------------------|
|----------------44-------------------------------|

And it got me

caught in a mind control
|-------------------------------------------------|
|-------------------------------------------------|
|-------------------------------------------------|
|4-6-------6------6---44--------------------------|
|-------------------------------------------------|
|----4---4---4--4---4-----------------------------|

This place is prison
|-------------------------------------------------|
|-------------------------------------------------|
|-------------------------------------------------|
|----------------66-------------------------------|
|----------------66-------------------------------|
|----------------44-------------------------------|

I'm chained up

I give up and
|-------------------------------------------------|
|-------------------------------------------------|
|-------------------------------------------------|
|----66-------------------------------------------|
|----66-------------------------------------------|
|----44-------------------------------------------|

I'm out of mercy
|-------------------------------------------------|
|-------------------------------------------------|
|-------------------------------------------------|
|--------------44---------------------------------|
|-------------------------------------------------|
|-------------------------------------------------|

She wouldn't let me go
|-------------------------------------------------|
|-------------------------------------------------|
|-------------------------------------------------|
|4-6-------6--------------------------------------|
|-------------------------------------------------|
|----4---4---4------------------------------------|

CHORUS
E D# C#
She said she likes to dance all by herself
G#
'Cause she's a party girl
E F C#
And she don't care for nobody else
G#
She's in her own world
E D# C# D# G#
I love this little party girl (Ooh oh oh oh oh oh oh oh oh)
E F C# D# G#
She's such a little party girl (Ooh oh oh oh oh oh oh oh oh)

She's such a little party girl

***(SYNTHESIZER)***

Such a little party girl

YEEEAH!

CHORUS
E D# C#
She likes to dance all by herself
D# G#
'Cause she's a party girl
E F C#
She don't care for nobody else
D# G#
She's in her own world
E D# C# D# G#
I love this little party girl (Ooh oh oh oh oh oh oh oh oh)
E F C# D# G#
She's such a little party girl (Ooh oh oh oh oh oh oh oh oh)

She's such a little party girl

*Ending*

|----------------------------------------------|
|----------------------------------------------|
|----------------------------------------------|
|44-6------6-----6-----6-----------------------|
|----------------------------------------------|
|-----4--4---4-4---4-4---4~--------------------|

guest
You may want to rate the tab now too:
select rating
Wanna post a correction for this tab? Suggest correction