Oops, an error
Loading. Please wait.

Please Please ukulele

by McFly
126 views 1 this week
no commentswrite comment
1 2 3 4 5
3 more votes to show rating
add to favorites
×
Save as Personal and add changes to this tab that will be seen only by you. Learn more ›
×
You can save this tab as Personal to edit and correct it or add notes. All changes will be seen only by you. Learn more »
launch autoscroll
font size
0
reset
transpose
0
reset
display chords
guitar tuner
edit
Autoscroll
slow
fast
+/-
esc
set tempo
stop
Strumming
There is no strumming pattern for this song yet. and get +5 IQ
McFly 
Please Please
Tuning: Standard
Transcribed by Soch Hean


Intro/Chorus:
Please please Lindsay please
|------------------------------------------------|
|------------------------------------------------|
|------------7-7---------------------------------|
|-9\---4-4---7-7--7-7--9-9--9-9--9-9--9-9--------|
|-9\---4-4---5-5--7-7--9-9--9-9--9-9--9-9--------|
|-7\---2-2--------5-5--7-7--7-7--7-7--7-7--------|


Verse:
B        A                     B      A
Set the scene, I think I'm in love now
      B         A
Your eyes are green 
               B       A
You come from above now
E     D                     E    D
Easy girl, I think we're alone now
               E             D
Let's get the motion in the ocean
                   E      D
So turn off your phone now


Bridge:
B
I wanna put my hands on your skin
E
Underneath the clothes that you're in
F#
So kick of your shoes
              F#
Let the fun begin


Chorus:
 B        F#      E
[Please, Please, Please]

C, C, C, Come home with me now
 B        F#      E
[Please, Please, Please]

M, M, M, Must be a dreamer
 B        F#      E
[Please, Please, Please]
                  A     F#
I wanna get with you


Please please Lindsay please
|------------------------------------------------|
|------------------------------------------------|
|------------7-7---------------------------------|
|-9\---4-4---7-7--7-7--9-9--9-9--9-9--9-9--------|
|-9\---4-4---5-5--7-7--9-9--9-9--9-9--9-9--------|
|-7\---2-2--------5-5--7-7--7-7--7-7--7-7--------|


Verse 2:
B    A                  B     A
Sunsets, the colour of fire
E         D                      E    D
Yeah redhead, you're taking me higher


Bridge:
B
I'm not sure what's happening to me
E
If you were a god then I will believe
F#                                   F#
You love yourself more then you love me


Chorus:
 B        F#      E
[Please, Please, Please]

C, C, C, Come home with me now
 B        F#      E
[Please, Please, Please]

M, M, M, Must be a dreamer
 B        F#      E
[Please, Please, Please]
                  A     F#
I wanna get with you
 B        F#      E
[Please, Please, Please]

C, C, C, Come home with me now
 B        F#      E
[Please, Please, Please]

Oh, you got me thinking of England
 B        F#      E
[Please, Please, Please]
                  A     F#
I wanna get with you


Please please Lindsay please
|------------------------------------------------|
|------------------------------------------------|
|------------7-7---------------------------------|
|-9\---4-4---7-7--7-7--9-9--9-9--9-9--9-9--------|
|-9\---4-4---5-5--7-7--9-9--9-9--9-9--9-9--------|
|-7\---2-2--------5-5--7-7--7-7--7-7--7-7--------| 

Please please Lindsay please
|-----------------------2-------2-------|
|-----------------------2-------2-------|
|------------7-7--------3-------3-------|
|-9\---4-4---7-7--7-7---4-------4-------|
|-9\---4-4---5-5--7-7---4-------4-------|
|-7\---2-2--------5-5---2-------2-------|


Interlude: Ba Ba Ba Ba
|-------------------------------------------------|
|-------------------------------------------------|
|-4--4--4--4--------------------------------------|
|-4--4--4--4--4------------3--4--5--6--7--8--9----|
|-2--2--2--2--4------------3--4--5--6--7--8--9----|
|-------------2----------0-1--2--3--4--5--6--7----|


Verse 3:
Db5  B5                Db5     B5
Girl,  I'm talking to you now
F#5  E5                   F#5      E5
Girl,  I thought that you knew now

Play during Verse 3:
|------------------------------------------------|
|------------------------------------------------|
|------------------------------------------------|
|-----6-6--------------------6-6-----------------|
|-8-8-----8-9------------8-8-----8-9-------------|
|-------------6-7-8-9----------------6-7-8-9-----|


Bridge:
Db5
I wanna run my hands through your hair
F#
Cover the room with your underwear
Ab                                    Ab
Wanted to make it out like we don't care


[Instrumental Chorus]


Chorus:
 Db5      Ab      F#
[Please, Please, Please]

C, C, C, Come home with me now
 Db5      Ab      F#
[Please, Please, Please]

Oh, you got me thinking of England
 Db5      Ab      F#
[Please, Please, Please]
                  B5    
I wanna get with you
           Ab
Yeah, you know I do


Outro:
Please please Lindsay please
|--------------------------------------------------|
|--------------------------------------------------|
|------------9-9-----------------------------------|
|-11\--6-6---9-9--9-9---11-11--11-11--11-11--11-11-|
|-11\--6-6---7-7--9-9---11-11--11-11--11-11--11-11-|
|-9=\--4-4--------7-7---9--9---9--9---9--9---9--9--| (x2)

|----------------------|
|----------------------|
|------------9-9-------|
|-11\--6-6---9-9--9-9--|
|-11\--6-6---7-7--9-9--|
|-9=\--4-4--------7-7--| (x2)

|--------------------------|
|--------------------------|
|----------------------6\--|
|-11\--6-6---4-4--4----6\--|
|-11\--6-6---4-4--4----4\--|
|-9=\--4-4---2-2--2--------|

Chords:
Db5:   x466xx
Ab:    466xxx
F#:    244322
B5:    x244xx
B:     x2444x
A:     x02220
E:     022100
D:     xx0232

            
            
Suggest correction
Creating personal tab
Creating personal tab
You can edit any tab online and save it as your Personal.

You can edit, replace or remove any tab part or add personal notes – all changes will be seen only by you.

Personal tabs can be accessed anytime from any device, even offline.
Learn more »
Give kudos to tab author, rate the tab!
1 2 3 4 5
comments
print report bad tab
guest
Wanna post a correction for this tab? Suggest correction