Oops, an error
Loading. Please wait.

Pov Tab

version 1
version 1

Whole song

Interactive

31,395 views 18 this week
5 commentsread comments
1 2 3 4 5
excellent!
x 19
add to favorites
launch autoscroll
font size
0
reset
how to read this tab
guitar tuner
Tab Pro tools
  • play this tab
  • loop segment
  • change instrument
  • show fretboard
  • metronome
×
Best way to learn
"Pov"
Autoscroll
slow
fast
+/-
esc
set tempo
stop
Contributor
McFly
POV
Radio:ACTIVE
Tuning: Standart

INTRO 
Let the piano do it or play this:
            G                      D/F#                     D
e|----------------------|-----------------------|-------2-------2-2-2-3-|
B|------3-------3-3-3---|-------3-------3-3-3---|-----3-------3---------|
G|----0-------0-------0-|-----2-------2-------2-|---2-------2-----------|
D|--0-------0-----------|---0-------0-----------|-0-------0-------------|
A|----------------------|-----------------------|-----------------------|
E|3-------3-------------|-2-------2-------------|-----------------------|


VERSE 1
            G                      D/F#                     D
e|----------------------|-----------------------|-------2-------2-2-2-3-|
B|------3-------3-3-3---|-------3-------3-3-3---|-----3-------3---------|
G|----0-------0-------0-|-----2-------2-------2-|---2-------2-----------|
D|--0-------0-----------|---0-------0-----------|-0-------0-------------| x2
A|----------------------|-----------------------|-----------------------|
E|3-------3-------------|-2-------2-------------|-----------------------|

G
I'm getting tired of asking
D/F#
This is the final time
D
So did I make you happy?
G
Because you've cried an ocean
D/F#
When there's a thousand lines
D
About the way you smiled
C
Written in my mind
                              D
But every single word's a lie


CHORUS
G1 (Tom)
e|--------------------------------------------------------------------| 
B|--------------------------------------------------------------------| 
G|-----------------4444444444444444-55555555555555--------------------| 
D|--22222222222222-4444444444444444-55555555555555-55555555-44444444--| x2
A|--22222222222222-2222222222222222-33333333333333-55555555-44444444--| 
E|--00000000000000---------------------------------33333333-22222222--| 

G2 (Danny)
e|-------------------------------------------------------------------------| 
B|-------------------------------------------------------------------------| 
G|-----------------4444444444444444-55555555555555--1616161616-1414141414--| 
D|--22222222222222-4444444444444444-55555555555555-------------------------| 
A|--22222222222222-2222222222222202-33333333333333--1414141414-1212121212--| 
E|--00000000000000---------------------------------------------------------| 

e|--------------------------------------------------------------------| 
B|--------------------------------------------------------------------| 
G|-----------------4444444444444444-55555555555555----------77777777--| 
D|--22222222222222-4444444444444444-55555555555555-55555555-77777777--| 
A|--22222222222222-2222222222222202-33333333333333-55555555-55555555--| 
E|--00000000000000---------------------------------33333333-----------|


VERSE 2
            G                      D/F#                     D
e|----------------------|-----------------------|-------2-------2-2-2-3-|
B|------3-------3-3-3---|-------3-------3-3-3---|-----3-------3---------|
G|----0-------0-------0-|-----2-------2-------2-|---2-------2-----------|
D|--0-------0-----------|---0-------0-----------|-0-------0-------------| x2
A|----------------------|-----------------------|-----------------------|
E|3-------3-------------|-2-------2-------------|-----------------------|

G
Is this a sign from heaven
D/F#
Showing me the light?
D
Was this supposed to happen?
G
I'm better off without you
D/F#
So you can leave tonight
D                                C
And don't you dare come back and try to make things right
                                  D
'Cause I'll be ready for a fight, yeah


CHORUS
G1 (Tom)
e|--------------------------------------------------------------------| 
B|--------------------------------------------------------------------| 
G|-----------------4444444444444444-55555555555555--------------------| 
D|--22222222222222-4444444444444444-55555555555555-55555555-44444444--| x2
A|--22222222222222-2222222222222222-33333333333333-55555555-44444444--| 
E|--00000000000000---------------------------------33333333-22222222--| 

G2 (Danny)
e|-------------------------------------------------------------------------| 
B|-------------------------------------------------------------------------| 
G|-----------------4444444444444444-55555555555555--1616161616-1414141414--| 
D|--22222222222222-4444444444444444-55555555555555-------------------------| 
A|--22222222222222-2222222222222202-33333333333333--1414141414-1212121212--| 
E|--00000000000000---------------------------------------------------------| 

e|--------------------------------------------------------------------| 
B|--------------------------------------------------------------------| 
G|-----------------4444444444444444-55555555555555----------77777777--| 
D|--22222222222222-4444444444444444-55555555555555-55555555-77777777--| 
A|--22222222222222-2222222222222202-33333333333333-55555555-55555555--| 
E|--00000000000000---------------------------------33333333-----------| 


SOLO
G1 (Tom)
    Em         Am                    D         
e|----------------------------------------|
B|----------------------------------------|
G|--9-13-14-16-19--17--16--14--11/12-11~~-|
D|----------------------------------------|
A|--7-11-12-14-17~-15~-14~-12~-9/10--9~~--|
E|----------------------------------------|

               G       F#      Em     
e|---------------------------------------|
B|---------------------------------------|
G|--7-11-12-14-17--16--14--16--12--11-9--|
D|---------------------------------------|
A|--5-9--10-12-15~-14~-12--14--10--9--7--|
E|---------------------------------------|

               Am                            
e|------------------------------|
B|------------------------------|
G|--9-13-14-16-19--17--16--14~--|
D|------------------------------|
A|--7-11-12-14-17~-15~-14~-12~--|
E|------------------------------|

e|-----------------------------------------| 
B|-----------------------------------------| 
G|----55555555-77777777-88888888-10101010--| 
D|-\\-55555555-77777777-88888888-10101010--| 
A|-\\-33333333-55555555-66666666-88888888--| 
E|-\\--------------------------------------| 
   |
do some pick scrapes or slides
then play what's on the side

                    
G2 (Danny)
(not the exact amount of times strummed)
   Em   Am  D   G  F#  Em  Am
e|----------------------------|
B|----------------------------|
G|------2---7--------------2--|
D|--2---2---7---5--4---2---2--|
A|--2---0---5---5--4---2---0--|
E|--0-----------3--2---0------|

e|-----------------------------------------------------------------------|
B|-----------------------------------------------------------------------|
G|-----------------------------------------------------------------------|
D|-1313131313131313-1515151515151515-1717171717171717-191919191919191919-|
A|-----------------------------------------------------------------------|
E|-----------------------------------------------------------------------|

      
CHORUS
G1 (Tom)
e|--------------------------------------------------------------------| 
B|--------------------------------------------------------------------| 
G|-----------------4444444444444444-55555555555555--------------------| 
D|--22222222222222-4444444444444444-55555555555555-55555555-44444444--| x2
A|--22222222222222-2222222222222222-33333333333333-55555555-44444444--| 
E|--00000000000000---------------------------------33333333-22222222--| 

G2 (Danny)
e|-------------------------------------------------------------------------| 
B|-------------------------------------------------------------------------| 
G|-----------------4444444444444444-55555555555555--1616161616-1414141414--| 
D|--22222222222222-4444444444444444-55555555555555-------------------------| 
A|--22222222222222-2222222222222202-33333333333333--1414141414-1212121212--| 
E|--00000000000000---------------------------------------------------------| 

e|--------------------------------------------------------------------| 
B|--------------------------------------------------------------------| 
G|-----------------4444444444444444-55555555555555----------77777777--| 
D|--22222222222222-4444444444444444-55555555555555-55555555-77777777--| 
A|--22222222222222-2222222222222202-33333333333333-55555555-55555555--| 
E|--00000000000000---------------------------------33333333-----------| 


VERSE 3
(Strum once or arpeggiate)
            G                      D/F#                     D
e|----------------------|-----------------------|-------2-------2-2-2-3-|
B|------3-------3-3-3---|-------3-------3-3-3---|-----3-------3---------|
G|----0-------0-------0-|-----2-------2-------2-|---2-------2-----------|
D|--0-------0-----------|---0-------0-----------|-0-------0-------------| x3
A|----------------------|-----------------------|-----------------------|
E|3-------3-------------|-2-------2-------------|-----------------------|


========
LYRICS
========
VERSE 1
I'm getting tired of asking
This is the final time
So, did I make you happy?
Because you cried an ocean
When there's a thousand lines
About the way you smile
Written in my mind
But every single word's a lie

CHORUS
I never wanted everything to end this way
But you can take the bluest sky and turn it grey
I swore to you that I would do my best to change
But you said it don't matter
I'm looking at you from another point of view
I don't know how the hell I fell in love with you
I'd never wish for anyone to feel the way I do

VERSE 2
Is this a sign from heaven?
Showing me the light
Was this supposed to happen?
I'm better off without you
So you can leave tonight
And don't you dare come back
And try to make things right
'Cause I'll be ready for a fight
Yeah

CHORUS 
I never wanted everything to end this way
But you can take the bluest sky and turn it grey
I swore to you that I would do my best to change
But you said it don't matter
I'm looking at you from another point of view
I don't know how the hell I fell in love with you
I'd never wish for anyone to feel the way I do
Hey

I never thought that everything would end this way
But you can take the bluest sky and turn it grey
I swore to you that I would do my best to change
But you said it don't matter
I'm looking at you from another point of view
I don't know how the hell I fell in love with you
I'd never wish for anyone to feel the way I do

VERSE 3
And you said, and you said, and you said (I do)
And you said, and you said, and you said (Do)
'Cause you said it don't matter (I do)
And you said, and you said, and you said (I do)
And you said, and you said, and you said (Do)
'Cause you said it don't matter
And you said, and you said, and you said
And you said, and you said, and you said
'Cause you said it don't matter
And you said, and you said, and you said
And you said, and you said, and you said
'Cause you said it don't matter 
comments
print report bad tab
5 comments total. Showing first comments.
-1 reply
chriswillo121 wrote on July 26 2009, 05:46 pm

stole mine

0 reply
lééti wrote on July 27 2009, 11:45 am

what an ass, are you still on this? you didn't steal mine and i didn't steal yours. what i did at the time was saying that mine came first, actually on the first day the song was online, so it was pretty odd that yours was similar. not gonna discuss about this AGAIN.

0 reply
spmcflylover wrote on February 27 2010, 09:24 am

I don't understand the solo, Tom palys to strings simultanously? Separate they sound great but I can't seem to get it right playing both strings. Are sure that Tom plays both strings?

I want to post or [tab]
guest
You may want to rate the tab now too:
select rating
Please do not post tabs as comments. Select "correction" instead!