Oops, an error
Loading. Please wait.

Rockin Robin bass

version 3
version 3

Whole song

by McFly
1,742 views 1 this week
no commentswrite comment
1 2 3 4 5
1 last vote to show rating
add to favorites
×
Save as Personal and add changes to this tab that will be seen only by you. Learn more ›
×
You can save this tab as Personal to edit and correct it or add notes. All changes will be seen only by you. Learn more »
launch autoscroll
font size
0
reset
guitar tuner
edit
Autoscroll
slow
fast
+/-
esc
set tempo
stop
Author
Difficulty
Tabbed by CharGuitarGirl

This song is easy if you listen to the rhythm, a pair of decent headphones whilst listening
to the song will help you hear how Doug plays it.


INTRO:-

1234! (0:02)
G|----------|
D|----------|
A|----3-5-5-|
E|--3-------| X3 let the first note ring each time

(0:10)
G|------------|
D|------------|
A|------------|
E|--3-3---3-3-|

VERSE:-
(0:13)
G|------------|
D|------------|
A|------------|
E|--1/-3------| you can always hammer on instead of sliding


CHORUS:-
(0:22)
G|-----------------------------------------|
D|-----------------------------------------|
A|-----------------3--3-----3---5---5---5--|
E|--3-3----5---7-----3--3-3---3---3---3----|

(0:29)
G|-----------------------|
D|-----------------------|
A|-5--3-----3---3--3---3-|
E|---5--3--3--5--5----5--|


VERSE:-
(0:34)
G|------------|
D|------------|
A|------------|
E|--1/-3------| X3


CHORUS:-
(0:44)
G|---------------|
D|---------------|
A|-/10-10--8--8--|
E|---------------|

(0:46)
G|-----------------------|
D|-----------------------|
A|-3--3---3----5--5---5--|
E|--3--3-3---3--3---3----|

(0:51)
G|-----------------------|
D|-----------------------|
A|-5--3-----3---3--3---3-|
E|---5--3--3--5--5----5--|


SOLO:-

(0:56)
G|--------      G|--------|
D|--------      D|----3---|
A|----5---      A|-3-5-5--|
E|-3-5--5- x4   E|--------| X2

G|--------      G|--------|
D|--------      D|----3---|
A|----5---      A|-3-5-5--|
E|-3-5--5- x2   E|--------| X2

G|--------|
D|--------|
A|----5---|
E|-3-5--5-| x2


CHORUS:-
(1:13)

G|---------------------------------|---------------|
D|---------------------------------|---------------|
A|-3--3---3----5----------7--7---7-|-9--10-8-5-4---|
E|--3--3-3---3--3-5-6-7-8--8---8---|-------------3-|

The bit after the | i dont think is correct
because as im tabbing this i dont have my bass
on me to check and i cant rememeber how to play
it from when i worked it out a few hours ago


The rest of the song is the same as before so listen to the bass and you'll be able to do it for
yourself (im not lazy im helping you become a better bassist :P:P)

Oh and watch out in the comments section for the correct way to play the part i cant rememeber at
this very moment.

thanks guys and girls
x

            
            
Suggest correction
Creating personal tab
Creating personal tab
You can edit any tab online and save it as your Personal.

You can edit, replace or remove any tab part or add personal notes – all changes will be seen only by you.

Personal tabs can be accessed anytime from any device, even offline.
Learn more »
Give kudos to tab author, rate the tab!
1 2 3 4 5
comments
print report bad tab
guest
You may want to rate the tab now too:
select rating
Wanna post a correction for this tab? Suggest correction