Oops, an error
Loading. Please wait.

Saturday Night solo tab

version 1
version 1

Solo

by McFly
2,249 views 1 this week
no commentswrite comment
1 2 3 4 5
x 4
add to favorites
×
Save as Personal and add changes to this tab that will be seen only by you. Learn more ›
×
You can save this tab as Personal to edit and correct it or add notes. All changes will be seen only by you. Learn more »
launch autoscroll
font size
0
reset
how to read this tab
guitar tuner
edit
Autoscroll
slow
fast
+/-
esc
set tempo
stop
Author
Artist - McFly
Song - Saturday Night (Solo)
Album - Room On The Third Floor
Standard Tuning (e,B,G,D,A,E)

Here is the solo to one of the best McFly songs!!!!
you will have 2 use a Wah Wah effect on it heavily 2 get that right sound!!

Key:
h = hammer on
p = pull off
s = slide
hb = half bend
b = bend
~ = vibrato


e|---------------------------------------------------|
B|--------------------------------------------11b----|
G|-9h11p9-9h11p9-9h11p9-9h11p9-9h11---------9-11b----|
D|----------------------------------9-11-11----------|
A|---------------------------------------------------|
E|---------------------------------------------------|


e|------9-9---9-9----9-9---9-9---9-9-12-12-11-11-9-9-|
B|-8hb9-----9------9-----9-----9---------------------|
G|---------------------------------------------------|
D|---------------------------------------------------|
A|---------------------------------------------------|
E|---------------------------------------------------|


e|-8s12—12b-12---------------------------------------|
B|-------------14-12-14-12~-12-12--------------------|
G|--------------------------------9h11p9-9h11p9------|
D|---------------------------------------------------|
A|---------------------------------------------------|
E|---------------------------------------------------|


e|---------------------------------------------------|
B|---------------------------------------------------|
G|--9h11p9-9h11p9—11b12-11b12-9----9—11b12-11b12-----|
D|------------------------------11-------------------|
A|---------------------------------------------------|
E|---------------------------------------------------|


e|--------------------------------------------------|
B|--------------------------------------------------|
G|-11-9----9----------------------------------------|
D|------11---11-------------------------------------|
A|--------------------------------------------------|
E|--------------------------------------------------|

And ther u have it the whole solo, i know its not 100% perfect but it sounds good 2 me. 
u have any questions, corections or watever just e-mail me 2 let me know wat u think at ljenkins040@aol.com
thanx :)

            
            
Suggest correction
Creating personal tab
Creating personal tab
You can edit any tab online and save it as your Personal.

You can edit, replace or remove any tab part or add personal notes – all changes will be seen only by you.

Personal tabs can be accessed anytime from any device, even offline.
Learn more »
comments
print report bad tab
guest
You may want to rate the tab now too:
select rating
Wanna post a correction for this tab? Suggest correction