Oops, an error
Loading. Please wait.

She Left Me tab

version 2
version 2

Whole song

Interactive

by McFly
17,997 views 6 this week
4 commentsread comments
1 2 3 4 5
x 11
add to favorites
×
Save as Personal and add changes to this tab that will be seen only by you. Learn more ›
×
You can save this tab as Personal to edit and correct it or add notes. All changes will be seen only by you. Learn more »
launch autoscroll
font size
0
reset
how to read this tab
guitar tuner
edit
Autoscroll
slow
fast
+/-
esc
set tempo
stop
McFly
She Left Me
Tuning: EADGBE (Standard)
Transcribed by Soch H.

Intro: G  Bm  C  D 
       G  Bm  C  Cm

G          Bm
She walked in and said
                  C        D
She didn't wanna know anymore
G       Bm
Before I could ask 
             C            Cm
Why she was gone out the door
Bm             Em
And I didn't know
Bm           Em
What I did wrong
C                          D
But now I just can't move on

G
Since she left me
Bm                   C
She told me, don't worry
D                        Bm
You'll be ok, you don't need me
Em                      C    D
Believe me, you'll be fine
Em
Then I knew what she meant
          D            Em  A
And it's not what she said
C                           G
Now I can't believe she's gone

Bm  C  D

G          Bm                   C
I tried callin' her up on her phone
           D
No one's there
G         Bm               C
I left messages after the tone (Really?)
Cm
Yeah man, loads
Bm         Em
I didn't know
Bm         Em
What I did wrong
C                          D
But now I just can't move on


G
Since she left me
Bm                   C
She told me, don't worry
D                        Bm
You'll be ok, you don't need me
Em                      C    D
Believe me, you'll be fine
Em
Then I knew what she meant
          D            Em  A
And it's not what she said
C              Cm                 
Now I can't believe she's gone

Guitar Solo: (2:08)
          G  Bm                     C                       D
|--------------------------------------------------------------|
|--------------------------------------------------------------|
|----12--14b14rb14===--12----12-14-14b16rp12----12--12s14\-----|
|-14----------------------14-----------------14----------------|
|--------------------------------------------------------------|
|--------------------------------------------------------------|
          G                 Bm                  C          Cm
|----------------15-14-12--12h14p12-----------------------------|
|-----------------------------------15---12-15------------------|
|-----12-12~--12-------------------------------12~----12-14b16r-|
|-/14----------------------------------------------14-----------|
|---------------------------------------------------------------|
|---------------------------------------------------------------|
                     Bm                Em
|--------------------------------------------------------------|
|--------------------------------------------------------------|
|----------12h14---[14]b16r--12-11-12-12s14~----------12--14---|
|-12h13h14-----------------------------------------14----------|
|--------------------------------------------------------------|
|--------------------------------------------------------------|
  Bm                                    Em
|----------12--------------------------------------------------|
|-------12----15p12--------------------------------------------|
|-14b16-------------14b16rp12----12-14-14b16rp12---------------|
|-----------------------------14----------------14\------------|
|--------------------------------------------------------------|
|--------------------------------------------------------------|
          C
|--------------------------------------------------------------|
|--------------------------------------------------------------|
|--------------------------------------------------------------|
|-----12-12h14-12-12-12h14-12-12-12h14-12-12-12h14-12-12-------|
|-/14----------------------------------------------------------|
|--------------------------------------------------------------|
  G                                                  D
|--------------------------------------------------------------|
|---------------------------------------------------12-15-15-15|
|--------------------------------------------------------------|
|-12h14-12-12-12h14-12-12-12h14-12-12-12h14-12-12--------------|
|--------------------------------------------------------------|
|--------------------------------------------------------------|

|--------------------|
|-12-15--15b17--15\--|
|--------------------|
|--------------------|
|--------------------|
|--------------------|
|--------------------|

                 G
Well since she left me
     Bm                  C
She told me, don't you worry
D                        Bm
You'll be ok, you don't need me
Em                      C  D
Believe me, you'll be fine
Em
Then I knew what she meant
          D             Em  A
And it's not what she said
C             Cm             
Now I can't believe she's gone

G  Bm  C  D       G

Chords:
G:    320033
Bm:   x24432
C:    x32010
D:    xx0232
Cm:   x35543
Em:   022000
A:    x02220

            
            
Suggest correction
Creating personal tab
Creating personal tab
You can edit any tab online and save it as your Personal.

You can edit, replace or remove any tab part or add personal notes – all changes will be seen only by you.

Personal tabs can be accessed anytime from any device, even offline.
Learn more »
comments
print report bad tab
4 comments total. Showing first comments.
+1 reply
hadderlovsjoman 10 Sep 27, 2006 05:27 AM

it sounds just about right to me! good job!

0 reply
lééti 597 Dec 29, 2008 06:46 AM

perfect! just little things on the solo:

|------------------------------------------------------------|
|------------------------------------------------------------|
|-----12-14b16rb16====---12----12-14-14b16r-12----12-12s14\--|
|--14-----------------------14-----------------14------------|
|------------------------------------------------------------|
|------------------------------------------------------------|

|---------------15-14-12-12h14p12------------------------------|
|----------------------------------15--12-15-------------------|
|-----12-12--12------------------------------12-----12-14b16r--|
|--14--------------------------------------------14------------|
|--------------------------------------------------------------|
|--------------------------------------------------------------|

|---------------------------------------------------------12---------------------------------------|
|------------------------------------------------------12----15p12---------------------------------|
|-------12-14--[14]b16r-12-11-12s14--12----12-14-14b16-------------14b16rp12----12-14-14b16rp12----|
|-12h14---------------------------------14-----------------------------------14-----------------14-|
|--------------------------------------------------------------------------------------------------|
|--------------------------------------------------------------------------------------------------|

|-----------------------------------------------------------------------------------------|
|-----------------------------------------------------------------------------------------|
|-----------------------------------------------------------------------------------------|
|-----12-h14-12-12-h14-12-12-h14-12-12-h14-12-12-h14-12-12-h14-12-12-h14-12-12-h14-12-12--|
|--14-------------------------------------------------------------------------------------|
|-----------------------------------------------------------------------------------------|

|-----------------------------|
|--12-15-15-15-12-15-15b17r~\-|
|-----------------------------|
|-----------------------------|
|-----------------------------|
|-----------------------------|

0 reply
BlaBlaMika 51 Aug 10, 2011 05:49 AM

Great tab mate,just one correction:
Bm Em
Then I knew what she meant
Bm Em A
And it's not what she said
C Cm G
Now I can't believe she's gone

guest
You may want to rate the tab now too:
select rating
Wanna post a correction for this tab? Suggest correction