Oops, an error
Loading. Please wait.

Sorry Is Not Good Enough chords

version 1
version 1
by McFly
7,129 views 1 this week
2 commentsread comments
1 2 3 4 5
2 more votes to show rating
add to favorites
×
Save as Personal and add changes to this tab that will be seen only by you. Learn more ›
×
You can save this tab as Personal to edit and correct it or add notes. All changes will be seen only by you. Learn more »
launch autoscroll
font size
0
reset
transpose
0
reset
display chords
guitar tuner
edit
Autoscroll
slow
fast
+/-
esc
set tempo
stop
Difficulty
Strumming
There is no strumming pattern for this song yet. and get +5 IQ
G                   D
sorrys not good enough
C                   D
why are we breaking up?
G                      G
cos i didnt treat u rough but dont go changing
Em
what was i thinking of
G
you said your out of love
C
you said you had enough
G                      D
but sorrys not good enough

            
            
Suggest correction
Creating personal tab
Creating personal tab
You can edit any tab online and save it as your Personal.

You can edit, replace or remove any tab part or add personal notes – all changes will be seen only by you.

Personal tabs can be accessed anytime from any device, even offline.
Learn more »
Give kudos to tab author, rate the tab!
1 2 3 4 5
comments
print report bad tab
2 comments total.
0 reply
lausey 10 Oct 25, 2006 11:01 AM

Short, not accurate.

0 reply
reece chown 57 Oct 26, 2006 03:33 PM

just not right at all reli,

just as a RELI rough guide for anyone who wants it )coz i cnt be arsed to tab it all lol)


intro/verse

Cant stop....you
e|--------------------------------------------------5------
B|----------------------------------------------------5----
G|--6--7----------------12----7----------------7--------7--
D|--6--7---6--7---------12----7---6--7---------7-----------
A|--4--5---6--7---------10----5---6--7---------5-----------
E|---------4--5-------------------4--5---------------------

....dreamer....you do i wont stop...
e|------------------------------------------------------
B|------------------------------------------------------
G|-----------------7----------4-4-4-4-6-6-6-6-7-7-7-7---
D|---6--7----------7----------4-4-4-4-6-6-6-6-7-7-7-7---
A|---6--7----------5----5--4--2-2-2-2-4-4-4-4-5-5-5-5---
E|---4--5-----------------------------------------------

coz i couldnt handle...
e|---------------------------------------------|
B|---------------------------------------------|
G|--9-9-9-7-6-4-4-4-4-6-6-6-6-9-9-9-9-9-9-9-9--|
D|--9-9-9-7-6-4-4-4-4-6-6-6-6-9-9-9-9-9-9-9-9--|
A|--7-7-7-5-4-2-2-2-2-4-4-4-4-7-7-7-7-7-7-7-7--|
E|---------------------------------------------|

chorus

A F# D
e|-------------------------
B|-------------------------
G|------------------7------ different ending each time.
D|--7-------4-------7------
A|--7-------4-------5------
E|--5---5-4-2---2-0--------

if you want it all then i will do the rest as long as come twat tom guy dnt steal it like he did before, he's a nob, wtch out guys, he WILL steal your tabs even if u say no, then lie about it lol

hence the other sorry is not good enough getting a 1 star rating.
infact its probably very similar to the tab i've written above, coz i sent it him on msn as notepad, wt a nob lol

ah well, if you wantl ike any new mcfly songs tabbed like transylvania or maybe we are the young feel free to ask.

ReeceXx

guest
Wanna post a correction for this tab? Suggest correction