Oops, an error
Loading. Please wait.

Sorry Is Not Good Enough tab

by McFly
6,841 views 1 this week
1 commentread comment
1 2 3 4 5
x 9
add to favorites
×
Save as Personal and add changes to this tab that will be seen only by you. Learn more ›
×
You can save this tab as Personal to edit and correct it or add notes. All changes will be seen only by you. Learn more »
launch autoscroll
font size
0
reset
how to read this tab
guitar tuner
edit
Autoscroll
slow
fast
+/-
esc
set tempo
stop
Author
Mcfly 
Sorry Isn't Good Enough

Tabbed by james bennett


Standard Tuning (E A D G B e)


Intro

Piano
e|----------------------|
B|----------------------|
G|----------------------|
D|----7---7-----7-----7-|
A|----------------------|
E|--5---5---5-5---5-5---|  X2


and carry on playing through these chords

e|----------------------------------------------------------|
B|----------------------------------------------------------|
G|--7-----------------7-------------------12--------11------|
D|--7-----------------7-7-----------------12--------11------|
A|--5-----------------5-7-----------------10--------9-------|
E|----------------------5-----------------------------------|



Verse 1:

e|-------------------------------------------5-----5--------|
B|---------------------------------------------5-----5------|
G|------------------------------------7----------7-----7----|
D|------7-7---------------------------7---------------------|
A|------7-7---------------------------5---------------------|
E|------5-5-------------------------------------------------|

   I cant stop... I cant stop loving you...

e|----------------------------------------------------------|
B|----------------------------------------------------------|
G|--------------------------------------------7---------7-6-|
D|----------7-7-------------------------------7---------7-6-|
A|----------7-7-------------------------------5---------5-4-|
E|----------5-5---------------------------------------------|

 You're a Dreamer... And thats what gets you through...


Pre Chorus:

e|-----------------------------------------------------|
B|-----------------------------------------------------|
G|---4-----4-----4-----4////////6-----6-----6-----6////|
D|---4-----4-----4-----4////////6-----6-----6-----6////|
A|---2-----2-----2-----2////////4-----4-----4-----4////|
E|-----------------------------------------------------|

   I can't Stop believing that this is the end

e|------------------------------------------------|
B|------------------------------------------------|
G|///7-----7-----7-----7////9-----9-----9-----7-6-|
D|///7-----7-----7-----7////9-----9-----9-----7-6-|
A|///5-----5-----5-----5////7-----7-----7-----5-4-|
E|------------------------------------------------|

   There must be another way...

e|-----------------------------------------------------------------------|
B|-----------------------------------------------------------------------|
G|---4-----4-----4-----4//////6-----6-----6-----6////9-----9-----9-----9-|
D|---4-----4-----4-----4//////6-----6-----6-----6////9-----9-----9-----9-|
A|---2-----2-----2-----2//////4-----4-----4-----4////7-----7-----7-----7-|
E|-----------------------------------------------------------------------|

    Kuz i couldnt handle the thought of you going away...   whoa     yeah


Chorus:

e|----------------------------------------------------------|
B|----------------------------------------------------------|
G|----------------------------------------------------------|
D|---7--7--7--7--7--7--7--7--7--4--4--4--4--4--4--4--4--4---|
A|---7--7--7--7--7--7--7--7--7--4--4--4--4--4--4--4--4--4---|
E|---5--5--5--5--5--5--5--5--5--2--2--2--2--2--2--2--2--2---|

   Sorry's not good enough...  Why are we breaking up...

e|----------------------------------------------------------|
B|----------------------------------------------------------|
G|---7--7--7--7--7--7--7--7--7--7--9--9--9--9--9--9--9--9---|
D|---7--7--7--7--7--7--7--7--7--7--9--9--9--9--9--9--9--9---|
A|---5--5--5--5--5--5--5--5--5--5--7--7--7--7--7--7--7--7---|
E|----------------------------------------------------------|

   Kuz i didnt treat you rough so dont go changing... 

e|----------------------------------------------------------|
B|----------------------------------------------------------|
G|----------------------------------------------------------|
D|---7--7--7--7--7--7--7--7--7--4--4--4--4--4--4--4--4--4---|
A|---7--7--7--7--7--7--7--7--7--4--4--4--4--4--4--4--4--4---|
E|---5--5--5--5--5--5--5--5--5--2--2--2--2--2--2--2--2--2---|

   What was a thinking of...   You said you'r out of love...

e|-------------------------------------------------------------|
B|-------------------------------------------------------------|
G|---7--7--7--7--7--7--7--7--7--7--7--7------------------------|
D|---7--7--7--7--7--7--7--7--7--7--7--7---5--5--5--5--2--2--2--|
A|---5--5--5--5--5--5--5--5--5--5--5--5---5--5--5--5--2--2--2--|
E|----------------------------------------3--3--3--3--0--0--0--|

   so baby dont call this off because... Sorry's not good enough

e|----------------------------------------------------------|
B|----------------------------------------------------------|
G|--7-----------------7-------------------7-----------------|
D|--7-----------------7-7-----------------7-7---5-7---------|
A|--5-----------------5-7-----------------5-7---5-7---------|
E|----------------------5-------------------5---3-5---------|

   Oh Yeah...


Verse 2:

e|---------------------------------------------5-----5--------|
B|-----------------------------------------------5-----5------|
G|--------------------------------------7----------7-----7----|
D|-------7-7----------------------------7---------------------|
A|-------7-7----------------------------5---------------------|
E|-------5-5--------------------------------------------------|

     Don't stop... All those things you do...

e|----------------------------------------------------------|
B|----------------------------------------------------------|
G|--------------------------------------------7---------7-6-|
D|----------7-7-------------------------------7---------7-6-|
A|----------7-7-------------------------------5---------5-4-|
E|----------5-5---------------------------------------------|

   I'm a dreamer... And thats what gets you through...


Pre Chorus:

e|--------------------------------------------------------|
B|--------------------------------------------------------|
G|------4-----4-----4-----4////////6-----6-----6-----6////|
D|------4-----4-----4-----4////////6-----6-----6-----6////|
A|------2-----2-----2-----2////////4-----4-----4-----4////|
E|--------------------------------------------------------|

   I can't fight this feeling that this is the end...

e|---------------------------------------------------------------|
B|---------------------------------------------------------------|
G|///7-----7-----7-----7/////12-----12-----12/////9--9--9--9--9--|
D|///7-----7-----7-----7/////12-----12-----12/////9--9--9--9--9--|
A|///5-----5-----5-----5/////10-----10-----10/////7--7--7--7--7--|
E|---------------------------------------------------------------|

   We're in the thick of it, where will this ever end? Woah, woah. 


Chorus:

e|----------------------------------------------------------|
B|----------------------------------------------------------|
G|----------------------------------------------------------|
D|---7--7--7--7--7--7--7--7--7--4--4--4--4--4--4--4--4--4---|
A|---7--7--7--7--7--7--7--7--7--4--4--4--4--4--4--4--4--4---|
E|---5--5--5--5--5--5--5--5--5--2--2--2--2--2--2--2--2--2---|

   Sorry's not good enough...  Why are we breaking up...

e|----------------------------------------------------------|
B|----------------------------------------------------------|
G|---7--7--7--7--7--7--7--7--7--7--9--9--9--9--9--9--9--9---|
D|---7--7--7--7--7--7--7--7--7--7--9--9--9--9--9--9--9--9---|
A|---5--5--5--5--5--5--5--5--5--5--7--7--7--7--7--7--7--7---|
E|----------------------------------------------------------|

   Kuz i didnt treat you rough so dont go changing... 

e|----------------------------------------------------------|
B|----------------------------------------------------------|
G|----------------------------------------------------------|
D|---7--7--7--7--7--7--7--7--7--4--4--4--4--4--4--4--4--4---|
A|---7--7--7--7--7--7--7--7--7--4--4--4--4--4--4--4--4--4---|
E|---5--5--5--5--5--5--5--5--5--2--2--2--2--2--2--2--2--2---|

   What was a thinking of...   You said you'r out of love...

e|-------------------------------------------------------------|
B|-------------------------------------------------------------|
G|---7--7--7--7--7--7--7--7--7--7--7--7------------------------|
D|---7--7--7--7--7--7--7--7--7--7--7--7---5--5--5--5--2--2--2--|
A|---5--5--5--5--5--5--5--5--5--5--5--5---5--5--5--5--2--2--2--|
E|----------------------------------------3--3--3--3--0--0--0--|

   so baby dont call this off because... Sorry's not good enough


Bridge:

e|-----------------------------------------------------------------|
B|-----------------------------------------------------------------|
G|--------9-----9-----9-----9-----9-----9-----9-----9-----9-----9--|
D|--------9-----9-----9-----9-----9-----9-----9-----9-----9-----9--|
A|--------7-----7-----7-----7-----7-----5-----5-----5-----5-----5--|
E|-----------------------------------------------------------------|

   Oh, you  said  you'd never leave me here, yeah a whole new reson. 

e|-------------------------------------------------------|
B|-------------------------------------------------------|
G|-------------------------------------------------------|
D|---5---5---5---5---5---5---5---5---4---4---4---4---4---|
A|---5---5---5---5---5---5---5---5---4---4---4---4---4---|
E|---3---3---3---3---3---3---3---3---2---2---2---2---2---|

    Sorry's just not good enough for you...

e|-------------------------------------------------------|
B|-------------------------------------------------------|
G|---------------7--7--7--------------7---7--------------|
D|---4---4---4---7--7--7---14\3-------7---7--------------|
A|---4---4---4---5--5--5---14\3-------5---5--------------|
E|---2---2---2-------------12\1--------------------------|

   Everybody makes mistakes...  and that's just what we do...


Piano
e|----------------------|
B|----------------------|
G|----------------------|
D|----7---7-----7-----7-|
A|----------------------|
E|--5---5---5-5---5-5---|  X2

e|----------------------------------------------------------|
B|----------------------------------------------------------|
G|--7-----------------7-------------------12--------11------|
D|--7-----------------7-7-----------------12--------11------|
A|--5-----------------5-7-----------------10--------9-------|
E|----------------------5-----------------------------------|



e|----------------------------------------------------------------------------|
B|----------------------------------------------------------------------------|
G|----------------------------------------------------------------------------|
D|----------------------------------------------------------------------------|
A|----------------------------------------------------------------------------|
E|----------------------------------------------------------------------------|

   Don't go changing, Don't go changing, Don't go changing, Don't go changing, 

e|----------------------------------------------------------------------------|
B|----------------------------------------------------------------------------|
G|----------------------------------------------------------------------------|
D|----------------------------------------------------------------------------|
A|----------------------------------------------------------------------------|
E|----------------------------------------------------------------------------|
  
   Don't go changing, Don't go changing, Don't go changing, Don't go changing, 

e|----------------------------------------------------------------------------|
B|----------------------------------------------------------------------------|
G|---------------------------------------7------------------9-----------------|
D|-7------------------4------------------7------------------9-----------------|
A|-7------------------4------------------5------------------7-----------------|
E|-5------------------2-------------------------------------------------------|

   Don't go changing, Don't go changing, Don't go changing, Don't go changing, 


Chorus:

e|----------------------------------------------------------|
B|----------------------------------------------------------|
G|----------------------------------------------------------|
D|---7--7--7--7--7--7--7--7--7--4--4--4--4--4--4--4--4--4---|
A|---7--7--7--7--7--7--7--7--7--4--4--4--4--4--4--4--4--4---|
E|---5--5--5--5--5--5--5--5--5--2--2--2--2--2--2--2--2--2---|

   Sorry's not good enough...  Why are we breaking up...

e|----------------------------------------------------------|
B|----------------------------------------------------------|
G|---7--7--7--7--7--7--7--7--7--7--9--9--9--9--9--9--9--9---|
D|---7--7--7--7--7--7--7--7--7--7--9--9--9--9--9--9--9--9---|
A|---5--5--5--5--5--5--5--5--5--5--7--7--7--7--7--7--7--7---|
E|----------------------------------------------------------|

   Kuz i didnt treat you rough so dont go changing... 

e|----------------------------------------------------------|
B|----------------------------------------------------------|
G|----------------------------------------------------------|
D|---7--7--7--7--7--7--7--7--7--4--4--4--4--4--4--4--4--4---|
A|---7--7--7--7--7--7--7--7--7--4--4--4--4--4--4--4--4--4---|
E|---5--5--5--5--5--5--5--5--5--2--2--2--2--2--2--2--2--2---|

   What was a thinking of...   You said you'r out of love...

e|-------------------------------------------------------------|
B|-------------------------------------------------------------|
G|---7--7--7--7--7--7--7--7--7--7--7--7------------------------|
D|---7--7--7--7--7--7--7--7--7--7--7--7---5--5--5--5--2--2--2--|
A|---5--5--5--5--5--5--5--5--5--5--5--5---5--5--5--5--2--2--2--|
E|----------------------------------------3--3--3--3--0--0--0--|

   so baby dont call this off because... Sorry's not good enough


Outro:

e|------------------------|
B|------------------------|
G|------------------------|
D|---5--5--5--5--2--2--2--|
A|---5--5--5--5--2--2--2--|
E|---3--3--3--3--0--0--0--|

   Sorry's not good enough...

e|------------------------|
B|------------------------|
G|------------------------|
D|---5--5--5--5--2--2--2--|
A|---5--5--5--5--2--2--2--|
E|---3--3--3--3--0--0--0--|

   Sorry's not good enough...

e|-----------------------------|
B|-----------------------------|
G|-----------------------------|
D|----5----5----2-----2-----7--|
A|----5----5----2-----2-----7--|
E|----3----3----0-----0-----5--|

   Sorry's not good enough...

hope you think they are alright 

enjoy

if you want to make any comments my e-mail is bennettjk2003@homail.co.uk  thanx
Suggest correction
Creating personal tab
Creating personal tab
You can edit any tab online and save it as your Personal.

You can edit, replace or remove any tab part or add personal notes – all changes will be seen only by you.

Personal tabs can be accessed anytime from any device, even offline.
Learn more »
comments
print report bad tab
1 comment total.
0 reply
punkgirl91 61 Jan 05, 2007 06:30 AM

thanx dude, i love this song, awesome tab :)

guest
You may want to rate the tab now too:
select rating
Wanna post a correction for this tab? Suggest correction