Oops, an error
Loading. Please wait.

Star Girl tab

version 1
version 1

Whole song

Interactive

by McFly
20,659 views 12 this week
2 commentsread comments
1 2 3 4 5
x 5
add to favorites
×
Save as Personal and add changes to this tab that will be seen only by you. Learn more ›
×
You can save this tab as Personal to edit and correct it or add notes. All changes will be seen only by you. Learn more »
launch autoscroll
font size
0
reset
how to read this tab
guitar tuner
backing track
0:00
0:00
edit
Autoscroll
slow
fast
+/-
esc
set tempo
stop
Author
Difficulty
-------------------------------------------------------------------------------
                             Star Girl - McFly
-------------------------------------------------------------------------------
Tabbed by: olif8
Email:



Tuning: 1/2 step down



Guitar 1: Danny

All Danny's verses are played stacatto (stabbed, deadened chords), except verse 3.



Verse:

Clean
    E                       F#                      A
e|---------------------------------------------------------------------------|
B|--9--9--9--9--9--9--9-999-9--9--9--9--9--9--9-999-9--9--9--9--9--9--9-999--|
G|---------------------------------------------------------------------------|
D|--9--9--9--9--9--9--9-999-8--8--8--8--8--8--8-888-7--7--7--7--7--7--7-777--|
A|--7--7--7--7--7--7--7-777-7--7--7--7--7--7--7-777-7--7--7--7--7--7--7-777--|
E|---------------------------------------------------------------------------|

e|----------------------------|
B|--9--9--9--9--9--9--9--9----|
G|----------------------------|
D|--7--7--7--7--7--7--7--7----|
A|--7--7--7--7--7--7--7--7----|      repeat x2
E|----------------------------|
   
    B
e|-------------------------|
B|-------------------------|
G|--8888888888888----------|
D|--9999999999999----------|
A|--9999999999999----------|
E|--7777777777777----------|




Chorus: (correct strumming pattern not shown)

Distorted

    E  A       E  B       E  A      E A B       E  A     E  B 
e|---------------------------------------------------------------------------|
B|--9----------9----------9---------9-----------9--------9-------------------|
G|--9--6-------9--8-------9--6------9-6-8-------9--6-----9--8----------------|
D|--9--7-------9--9-------9--7------9-7-9-------9--7-----9--9----------------|
A|--7--7-------7--9-------7--7------7-7-9-------7--7-----7--9----------------|
E|-----5----------7----------5--------5-7----------5--------7----------------|

    F#m         G#m         A           B
e|-----------------------------------------------|
B|-----------------------------------------------|
G|--2--2--2--2--4--4--4--4--6--6--6--6--8--8-----|
D|--4--4--4--4--6--6--6--6--7--7--7--7--9--9-----|
A|--4--4--4--4--6--6--6--6--7--7--7--7--9--9-----|  stacatto
E|--2--2--2--2--4--4--4--4--5--5--5--5--7--7-----|




Verse 2

e|----------------------------|
B|--9--9--9--9--9--9--9--9----|
G|----------------------------|
D|--9--9--9--9--9--9--9--9----|
A|--7--7--7--7--7--7--7--7----|      
E|----------------------------|

e|---------------------------------------------------------------------------|
B|--9--9--9--9--9--9--9-999-9--9--9--9--9--9--9-999-9--9--9--9--9--9--9-999--|
G|---------------------------------------------------------------------------|
D|--9--9--9--9--9--9--9-999-8--8--8--8--8--8--8-888-7--7--7--7--7--7--7-777--|
A|--7--7--7--7--7--7--7-777-7--7--7--7--7--7--7-777-7--7--7--7--7--7--7-777--|
E|---------------------------------------------------------------------------|

e|----------------------------|
B|--9--9--9--9--9--9--9--9----|
G|----------------------------|
D|--7--7--7--7--7--7--7--7----|
A|--7--7--7--7--7--7--7--7----|      repeat x2
E|----------------------------|

e|-------------------------|
B|-------------------------|
G|--8888888888888----------|
D|--9999999999999----------|
A|--9999999999999----------|
E|--7777777777777----------|




Chorus

e|---------------------------------------------------------------------------|
B|--9----------9----------9---------9-----------9--------9-------------------|
G|--9--6-------9--8-------9--6------9-6-8-------9--6-----9--8----------------|
D|--9--7-------9--9-------9--7------9-7-9-------9--7-----9--9----------------|
A|--7--7-------7--9-------7--7------7-7-9-------7--7-----7--9----------------|
E|-----5----------7----------5--------5-7----------5--------7----------------|

e|-----------------------------------------------|
B|-----------------------------------------------|
G|--2--2--2--2--4--4--4--4--6--6--6--6--8--8-----|
D|--4--4--4--4--6--6--6--6--7--7--7--7--9--9-----|
A|--4--4--4--4--6--6--6--6--7--7--7--7--9--9-----|    stacatto
E|--2--2--2--2--4--4--4--4--5--5--5--5--7--7-----|




Bridge

e|------------------------------------------------------------------------------|
B|--------------------------------------------12-15----------------------12--13-|
G|-----------------------------------------12-------------------------12--------|
D|--------------------------------------14-------------------------14-----------|
A|------------------------------------------------------------------------------|
E|------------------------------------------------------------------------------|

   "Fly away,   Watch the night turn into day..."  "Dance on the Milky Way"


          A                       B                       D
e|------------------------------------------------------------------------------------|
B|--------------------------------------------------------7--7--7--7--7--7--7--7------|
G|--------6--6--6--6--6--6--6--6--8--8--8--8--8--8--8--8--7--7--7--7--7--7--7--7------|
D|--------7--7--7--7--7--7--7--7--9--9--9--9--9--9--9--9--7--7--7--7--7--7--7--7------|
A|--------7--7--7--7--7--7--7--7--9--9--9--9--9--9--9--9--5--5--5--5--5--5--5--5------|
E|--------5--5--5--5--5--5--5--5--7--7--7--7--7--7--7--7------------------------------|

  "...the sky"

e|---------------------------------------------------------------------------|
B|--7--7--7--7--7--7--7--7---------------------------------------------------|
G|--7--7--7--7--7--7--7--7---------------------------------------------------|
D|--7--7--7--7--7--7--7--7---------------------------------------------------|
A|--5--5--5--5--5--5--5--5---------------------------------------------------|
E|---------------------------------------------------------------------------|





Brass solo/Verse 3:

    E5                      F#5                     A5
e|---------------------------------------------------------------------------|
B|---------------------------------------------------------------------------|
G|---------------------------------------------------------------------------|
D|--2--2--2--2--2--2--2--2--4--4--4--4--4--4--4--4--7--7--7--7--7--7--7--7---|
A|--2--2--2--2--2--2--2--2--4--4--4--4--4--4--4--4--7--7--7--7--7--7--7--7---|
E|--0--0--0--0--0--0--0--0--2--2--2--2--2--2--2--2--5--5--5--5--5--5--5--5---|

e|---------------------------------|
B|---------------------------------|
G|---------------------------------|
D|--7--7--7--7--7--7--7--7---------|
A|--7--7--7--7--7--7--7--7---------|  repeat x2, then
E|--5--5--5--5--5--5--5--5---------|

    B5
e|--------------------------|
B|--------------------------|
G|--------------------------|
D|--9999999999999-----------|
A|--9999999999999-----------|
E|--7777777777777-----------|




Chorus

e|---------------------------------------------------------------------------|
B|--9----------9----------9---------9-----------9--------9-------------------|
G|--9--6-------9--8-------9--6------9-6-8-------9--6-----9--8----------------|
D|--9--7-------9--9-------9--7------9-7-9-------9--7-----9--9----------------|
A|--7--7-------7--9-------7--7------7-7-9-------7--7-----7--9----------------|
E|-----5----------7----------5--------5-7----------5--------7----------------|

e|------------------------------------------------------|
B|------------------------------------------------------|
G|--2--2--2--2--4--4--4--4--6--6--6--6--8--8--8---------|
D|--4--4--4--4--6--6--6--6--7--7--7--7--9--9--9---------|
A|--4--4--4--4--6--6--6--6--7--7--7--7--9--9--9--2-0----|  stacatto
E|--2--2--2--2--4--4--4--4--5--5--5--5--7--7--7------4--|

e|---------------------------------------------------------------------------|
B|---------------------------------------------------------------------------|
G|---------------------------------------------------------------------------|
D|--4--4--4--4--6--6--6--6--7--7--7--7--9--9---------------------------------|
A|--4--4--4--4--6--6--6--6--7--7--7--7--9--9--------strummed-----------------|
E|--2--2--2--2--4--4--4--4--5--5--5--5--7--7---------------------------------|




Outro

e|--------------------------------------------|
B|--9--9--9--9--9--9--9-999-9--9--9--9--9-----|
G|--------------------------------------------|
D|--9--9--9--9--9--9--9-999-9--9--9--9--9-----|
A|--7--7--7--7--7--7--7-777-7--7--7--7--7-----|
E|--------------------------------------------|




Guitar 2: Tom


Verse:

After x1 of Danny's part, Tom comes in with:


e|---------------------------------------------------------------------------|
B|---------------------------------------------------------------------------|
G|---------------------------------------------------------------------------|
D|--2--2--------------------4--4--------------------7--7------7--7-----------|
A|--2--2--------------------4--4--------------------7--7------7--7-----------|
E|--0--0--------------------2--2--------------------5--5------5--5-----------|

e|---------------------------------------------------------------------------|
B|---------------------------------------------------------------------------|
G|---------------------------------------------------------------------------|
D|--7--7--------7--7------9999999999999--------------------------------------|
A|--7--7--------7--7------9999999999999--------------------------------------|
E|--5--5--------5--5------7777777777777--------------------------------------|




Chorus (exact strumming not shown):

e|----------------------------------------------------------------|
B|----------------------------------------------------------------|
G|-----------------4--------------------------4----------------4--|
D|-----7-----------4----------7---------------4----------------4--|
A|--7--7--------7--2-------7--7---------7--2--2-----7--7----7--2--|
E|--4--5--------4----------4--5---------4--0--------4--5----4-----|

e|--------------------------------------------------------------|
B|--------------------------------------------------------------|
G|--------------------------------------------------------------|
D|--4--4--4--4--6--6--6--6--7--7--7--7--9--9--------------------|
A|--4--4--4--4--6--6--6--6--7--7--7--7--9--9--------------------|
E|--2--2--2--2--4--4--4--4--5--5--5--5--7--7--------------------|




Verse 2:

e|---------------------------------------------------------------------------|
B|---------------------------------------------------------------------------|
G|---------------------------------------------------------------------------|
D|--2--2--------------------4--4--------------------7--7------7--7-----------|
A|--2--2--------------------4--4--------------------7--7------7--7-----------|
E|--0--0--------------------2--2--------------------5--5------5--5-----------|

e|----------------------------------------------|
B|----------------------------------------------|
G|----------------------------------------------|
D|-7--7--------7--7-----------------------------|
A|-7--7--------7--7-----------------------------|
E|-5--5--------5--5-----------------------------|

e|---------------------------------------------------------------------------|
B|---------------------------------------------------------------------------|
G|---------------------------------------------------------------------------|
D|--2--2--------------------4--4--------------------7--7------7--7-----------|
A|--2--2--------------------4--4--------------------7--7------7--7-----------|
E|--0--0--------------------2--2--------------------5--5------5--5-----------|

e|---------------------------------------------------------------------------|
B|---------------------------------------------------------------------------|
G|---------------------------------------------------------------------------|
D|--7--7--------7--7------9999999999999--------------------------------------|
A|--7--7--------7--7------9999999999999--------------------------------------|
E|--5--5--------5--5------7777777777777--------------------------------------|




Chorus:

e|----------------------------------------------------------------|
B|----------------------------------------------------------------|
G|-----------------4--------------------------4----------------4--|
D|-----7-----------4----------7---------------4----------------4--|
A|--7--7--------7--2-------7--7---------7--2--2-----7--7----7--2--|
E|--4--5--------4----------4--5---------4--0--------4--5----4-----|

e|--------------------------------------------------------------|
B|--------------------------------------------------------------|
G|--------------------------------------------------------------|
D|--4--4--4--4--6--6--6--6--7--7--7--7--9--9--------------------|
A|--4--4--4--4--6--6--6--6--7--7--7--7--9--9--------------------|
E|--2--2--2--2--4--4--4--4--5--5--5--5--7--7--------------------|




Bridge:

Acoustic guitar

    Em                             Am                     Dm
e|--7------------------------------5----------------------5----------------------|
B|--8------------------------------5----------------------6----------------------|
G|--9------------------------------5----------------------7----------------------|
D|--9------------------------------7----------------------7----------------------|
A|--7------------------------------7----------------------5----------------------|
E|---------------------------------5-------------------------------------------|

     "Fly away..."       "Melt me with your eyes..."  "My star girl rules..."

Electric, distorted
         
e|------------------------------------------------------------------------------------|
B|------------------------------------------------------------------------------------|
G|--------------------------------------------------------7--7--7--7--7--7--7--7------|
D|--------7--7--7--7--7--7--7--7--9--9--9--9--9--9--9--9--7--7--7--7--7--7--7--7------|
A|--------7--7--7--7--7--7--7--7--9--9--9--9--9--9--9--9--5--5--5--5--5--5--5--5------|
E|--------5--5--5--5--5--5--5--5--7--7--7--7--7--7--7--7------------------------------|

  "...the sky"

e|---------------------------------------------------------------------------|
B|---------------------------------------------------------------------------|
G|--7--7--7--7--7--7--7--7---------------------------------------------------|
D|--7--7--7--7--7--7--7--7---------------------------------------------------|
A|--5--5--5--5--5--5--5--5---------------------------------------------------|
E|---------------------------------------------------------------------------|




Brass solo/Verse 3:

e|---------------------------------------------------------------------------|
B|---------------------------------------------------------------------------|
G|---------------------------------------------------------------------------|
D|--2--2--2--2--2--2--2--2--4--4--4--4--4--4--4--4--7--7--7--7--7--7--7--7---|
A|--2--2--2--2--2--2--2--2--4--4--4--4--4--4--4--4--7--7--7--7--7--7--7--7---|
E|--0--0--0--0--0--0--0--0--2--2--2--2--2--2--2--2--5--5--5--5--5--5--5--5---|

e|---------------------------------|
B|---------------------------------|
G|---------------------------------|
D|--7--7--7--7--7--7--7--7---------|
A|--7--7--7--7--7--7--7--7---------|  repeat x2, then
E|--5--5--5--5--5--5--5--5---------|

e|--------------------------|
B|--------------------------|
G|--------------------------|
D|--9999999999999-----------|
A|--9999999999999-----------|
E|--7777777777777-----------|




Chorus

e|----------------------------------------------------------------|
B|----------------------------------------------------------------|
G|-----------------4--------------------------4----------------4--|
D|-----7-----------4----------7---------------4----------------4--|
A|--7--7--------7--2-------7--7---------7--2--2-----7--7----7--2--|
E|--4--5--------4----------4--5---------4--0--------4--5----4-----|

e|--------------------------------------------------------------|
B|--------------------------------------------------------------|
G|--------------------------------------------------------------|
D|--4--4--4--4--6--6--6--6--7--7--7--7--9--9--9--9--------------|
A|--4--4--4--4--6--6--6--6--7--7--7--7--9--9--9--9--2--0--------|
E|--2--2--2--2--4--4--4--4--5--5--5--5--7--7--7--7--------4-----|

e|--------------------------------------------------------------|
B|--------------------------------------------------------------|
G|--------------------------------------------------------------|
D|--4--4--4--4--6--6--6--6--7--7--7--7--9--9--------------------|
A|--4--4--4--4--6--6--6--6--7--7--7--7--9--9--------------------|
E|--2--2--2--2--4--4--4--4--5--5--5--5--7--7--------------------|





Brass Solo, transposed for guitar:


e|-------------------------------------------------|
B|--9--9--9--7--------------9--9--9--7--------7----|
G|--------------9--9---6----------------9--9-------|
D|-------------------------------------------------|
A|-------------------------------------------------|
E|-------------------------------------------------|

e|---------------------------------------------------------------------------|
B|--9--9--9--7-----------------------7-----7--10--9--7--9~-------------------------------|
G|--------------9--6-----6--9--6--9-----9-------------------------------------------|
D|--------------------9-------------------------------------------------------|
A|---------------------------------------------------------------------------|
E|---------------------------------------------------------------------------|




| /  slide up
| \  slide down
| h  hammer-on
| p  pull-off
| ~  vibrato
| +  harmonic
| x  Mute note
===============================================================================

            
            
Suggest correction
Creating personal tab
Creating personal tab
You can edit any tab online and save it as your Personal.

You can edit, replace or remove any tab part or add personal notes – all changes will be seen only by you.

Personal tabs can be accessed anytime from any device, even offline.
Learn more »
comments
print report bad tab
2 comments total.
0 reply
Thechich 269 Feb 19, 2007 02:37 AM

Sounds ok, though there are a couple of videos on YouTube that suggest its played differently. good effort though - I've been having a go myself and it's not easy.

0 reply
bittahsweet 21 Mar 22, 2007 05:28 AM

to me, danny's parts sound kind of wrong.

guest
You may want to rate the tab now too:
select rating
Wanna post a correction for this tab? Suggest correction