Oops, an error
Loading. Please wait.

The Heart Never Lies bass

version 1
version 1

Whole song

Interactive

by McFly
8,472 views 3 this week
no commentswrite comment
1 2 3 4 5
x 6
add to favorites
×
Save as Personal and add changes to this tab that will be seen only by you. Learn more ›
×
You can save this tab as Personal to edit and correct it or add notes. All changes will be seen only by you. Learn more »
launch autoscroll
font size
0
reset
guitar tuner
edit
Autoscroll
slow
fast
+/-
esc
set tempo
stop
Author
Difficulty
__________________________
¯¯¯¯¯¯¯¯¯¯¯¯¯¯¯¯¯¯¯¯¯¯¯¯¯¯
Hi guys, this is my first tab I made for the bass, I hope it's okay. 
If you notice any mistakes, please, tell me and I'll correct them, 
thanks and enjoy, everyone ! 

THE HEART NEVER LIES
Artist : MCFLY
Album : The Greatest Hits, 2007

Tuning : Standard (EADG)
Tabbed By : KwiiK
email : kbine_01@hotmail.com
__________________________
¯¯¯¯¯¯¯¯¯¯¯¯¯¯¯¯¯¯¯¯¯¯¯¯¯¯

/ : Slide up
\ : Slide down

Intro on piano


...Never lies (1:02)
G|-----------------------------------------------------------------|
D|-----------------------------------------------------------------|
A|-----------------------------------------------------------------|
E|--33333333333333333333333333333333-10\---------------------------|


...fight, some people fall... (1:12)
G|-----------------------------------------------------------------|
D|-----------------------------------------------------------------|
A|----------------------------------33333333-----------------------|
E|--33333333333333333333333300000000-------33333333----------------|

G|-----------------------------------------------------------------|
D|-----------------------------------------------------------------|
A|---------------3333333355555555----------------------------------|
E|333333333333333----------------333333333333333-------------------|


...Fall, I'll be right behind... (1:40)
G|-----------------------------------------------------------------|
D|-----------------------------------------------------------------|
A|3333333355555555-------------------------------------------------|
E|----------------333333333333333----------------------------------|


Pieces, if you don't beleive me... (1:50)
G|-----------------------------------------------------------------|
D|-----------------------------------------------------------------|
A|3333333355555555-------------------------------------------------|
E|----------------000000000000000----------------------------------|


Just look into my eyes... (2:00)
G|-----------------------------------------------------------------|
D|-----------------------------------------------------------------|
A|3333333355555555-------------------------------------------------|
E|----------------15\333333333333333-------------------------------|


Woahhh... (2:09)
G|-----------------------------------------------------------------|
D|-----------------------------------------------------------------|
A|7777777733333333-------------------------------------------------|
E|----------------333333333333333----------------------------------|

G|-----------------------------------------------------------------|
D|-----------------------------------------------------------------|
A|7777777733333333---------(this is 15, not 1 and 5)---------------|
E|----------------33333333/151515151515151515151515----------------|


Another year over... (2:28)
G|-----------------------------------------------------------------|
D|-----------------------------------------------------------------|
A|3333333355555555-------------------------------------------------|
E|----------------333333333333333----------------------------------|


It's not always easy... (2:38)
G|-----------------------------------------------------------------|
D|------------------(this is 10)-----------------------------------|
A|33333333555555551010101010101010\----/10101010-------------------|
E|---------------------------------3333----------------------------|


Yes we are the lovers... (2:48)  (Not sure about this part)
G|-----------------------------------------------------------------|
D|---------------------------5-------------------------------------|
A|3333333355555555\--------7---5-3-2-0-2-7-5-----------------------|
E|-----------------00000000----------------------------------------|


When you look into my eyes... (2:58)
G|-----------------------------------------------------------------|
D|------------------------(This is 10)-------------(this is 10)----|
A|5555555555555----------10101010101010\----------10101010101010\--|
E|-------------333333333/---------------333333333/-----------------|

G|---|
D|---|
A|---|
E|-3-|


This is the final note, I hope it works, it's my first tab so,
Cheers.

            
            
Suggest correction
Creating personal tab
Creating personal tab
You can edit any tab online and save it as your Personal.

You can edit, replace or remove any tab part or add personal notes – all changes will be seen only by you.

Personal tabs can be accessed anytime from any device, even offline.
Learn more »
comments
print report bad tab
guest
You may want to rate the tab now too:
select rating
Wanna post a correction for this tab? Suggest correction