Oops, an error
Loading. Please wait.

The Last Song chords

version 2
version 2

Whole song

by McFly
3,758 views 1 this week
no commentswrite comment
1 2 3 4 5
2 more votes to show rating
add to favorites
×
Save as Personal and add changes to this tab that will be seen only by you. Learn more ›
×
You can save this tab as Personal to edit and correct it or add notes. All changes will be seen only by you. Learn more »
launch autoscroll
font size
0
reset
transpose
0
reset
display chords
guitar tuner
edit
Autoscroll
slow
fast
+/-
esc
set tempo
stop
Author
Strumming
There is no strumming pattern for this song yet. and get +5 IQ
Heyyya

Right i will tell you right now that i know some of these chords are
wrong but i tried really hard and i really couldn't work out all the chords.
The last two chorus's at the end are wrong cause i was getting really confused
lol but yeah please don't be to harsh lol.  Please rate me.

e|---2-4-6----------------------------------------------------------------------|
B|------------------------------------------------------------------------------|
G|------------------------------------------------------------------------------|
D|------------------------------------------------------------------------------|
A|------------------------------------------------------------------------------|
E|-2----------------------------------------------------------------------------|


Verse 1

Fsharp
The time has come to say goodbye
Bm
The sun is setting in the sky
Ebmin
The truth turned out to be a lie
   Eb     Abmin
It's over, over
Csharp
Hum yourself a lullaby
Csharp
This is the end
                       Fsharp
But baby don't you cry

e|---2-4-6----------------------------------------------------------------------|
B|------------------------------------------------------------------------------|
G|------------------------------------------------------------------------------|
D|------------------------------------------------------------------------------|
A|------------------------------------------------------------------------------|
E|-2----------------------------------------------------------------------------|


Fsharp
So take away the melody
Bm
And all that's left are memories
Ebmin
Of lovers, friends and enemies
     Eb             Abmin
But they're all fading
Csharp
You may not remember me
Bm
I haven't got the strength to carry on

Chorus

Fsharp
If this is the last song
Bbmin
I'll ever sing
                              B
I'm giving it everything
                     Bm
I'm giving it all
Fsharp
If this is the last song
Bbmin
I'll ever play
                                       B
Then I guess it's time to take
                  Bm
My curtain call
     B                     Fsharp
I'm dying to thank you all
    B                       Fsharp
I'm dying to thank you all
    B                       Fsharp
I'm dying to thank you all
To thank you all
Yeah

Verse 2

Fsharp
So here's to all the lonely hearts
Bm
Cause mines been ripped and torn apart
Ebmin
I'm cold and now it's getting dark
 Eb      Abmin
But I'll be okay
Csharpmin
Bury me with my guitar
       Bm
And all the way to hell I'll play

CHORUS

Breakdown

Fsharp
One more song before I've got to go
I'm singing
Ebmin
From the very bottom of my soul
And hearing
B
Every single word and every note
I'm pleading
Csharp
Let me hear you sing it all once more
With feeling

Fsharp
One more song before I've got to go
I'm singing
Ebmin
From the very bottom of my soul
And hearing
B
Every single word and every note
I'm pleading
Csharp
Let me hear you sing it all once more
With feeling

LAST TWO CHORUS'S

Fsharp
If this is the last song
Bbm
I'll ever sing
B
I'm giving it everything
Bm
I'm giving it all
Fsharp
If this is the last song
Bbm
I'll ever play
B
I guess it's time to take
       Csharp B Bm
My curtain call

Fsharp          Bbm
If this is the last song
B
I'll ever sing
  Csharp                                 B
then I'm giving it everything
                    Bm
I'm giving it all
Fsharp            Bbm
If this is the last song
             B
I'll ever play
                         Csharp     B
Then I guess it's time to say
                    Fsharp
We thank you all

e|---2-4-6----------------------------------------------------------------------|
B|--2---------------------------------------------------------------------------|
G|------------------------------------------------------------------------------|
D|------------------------------------------------------------------------------|
A|------------------------------------------------------------------------------|
E|------------------------------------------------------------------------------|

Serena
xxxxxxx

            
            
Suggest correction
Creating personal tab
Creating personal tab
You can edit any tab online and save it as your Personal.

You can edit, replace or remove any tab part or add personal notes – all changes will be seen only by you.

Personal tabs can be accessed anytime from any device, even offline.
Learn more »
Give kudos to tab author, rate the tab!
1 2 3 4 5
comments
print report bad tab
guest
You may want to rate the tab now too:
select rating
Wanna post a correction for this tab? Suggest correction