Oops, an error
Loading. Please wait.

The Way You Make Me Feel tab

by McFly
14,198 views 12 this week
7 commentsread comments
1 2 3 4 5
x 10
add to favorites
×
Save as Personal and add changes to this tab that will be seen only by you. Learn more ›
×
You can save this tab as Personal to edit and correct it or add notes. All changes will be seen only by you. Learn more »
launch autoscroll
font size
0
reset
how to read this tab
guitar tuner
edit
Autoscroll
slow
fast
+/-
esc
set tempo
stop
Ok, I've been looking for a guitar tab for this amazing new song by Mcfly, but
I've never found one on any website, so I gave it a try and ended up with this.
This is my first tab and I've only been playing the guitar for less than 6
months, and I'm just teaching myself.. so be nice! Hope it's accurate, thanks (:

This video of me playing this song may help:
http://www.youtube.com/watch?v=TTC8POsRdyI

Credit me please!

»www.myspace.com/virginia_sj
»youtube.com/iloveyou91792

INTRO:
|---------------------------------------------|
|---0---0---0---0---0---0---------------0---0-|
|---------------------------------------------|
|---0---0---0---0---0---0-----0---------0---0-|
|---------------------------------------------|
|-3---3---3---3---3---3---0h2---0h1-2-3---3---|

VERSE 1:
--------------------------------------------------------------|
---0---0---0---0---0---0--------0---0---0---0---0---0---0---0-|
--------------------------------0---0---0---0---0---0---0---0-|
---0---0---0---0---0---0--------------------------------------|
------------------------------3---3---3---3---3---3---3---3---|
-3---3---3---3---3---3----------------------------------------|
I think yesterday and all the times I spent being lonely. I watched the

------------------------------------------------------|
---0---0---0---0---0---0---0---0----------------------|
---0---0---0---0---0---0---0---0----------------------|
------------------------------------------------------|
-5---5---5---5---5---5---5---5------------------------|
------------------------------------------------------|
young being young while all the singers sung about the

---------------------------------------------|
---0---0---0---0---0---0---------------0---0-|
---------------------------------------------|
---0---0---0---0---0---0-----0---------0---0-|
---------------------------------------------|
-3---3---3---3---3---3---0h2---0h1-2-3---3---|
way I felt.

-------------------------------------------------------------------|
---0---0---0---0---0---0---------------0---0---0---0---0---0---0---|
---------------------------------------0---0---0---0---0---0---0---|
---0---0---0---0---0---0-------------------------------------------|
-------------------------------------3---3---3---3---3---3---3---3-|
-3---3---3---3---3---3---------------------------------------------|
The days are here again when all the lights go down, what do they show me?


------------------------------------------------------------------|
----------------0---0---0---0---0---0---0---0---------------------|
----------------0---0---0---0---0---0---0---0---------------------|
------------------------------------------------------------------|
--------------5---5---5---5---5---5---5---5-----------------------|
------------------------------------------------------------------|
The rules are all the same, it's just a different game to tell you

-----------------------------------------------------------------|
---0---0---0---0---0---0---0---0---0---0---0---0---0---0---0---0-|
-----------------------------------0---0---0---0---0---0---0---0-|
---0---0---0---0---0---0---0---0---------------------------------|
---------------------------------3---3---3---3---3---3---3---3---|
-3---3---3---3---3---3---3---3-----------------------------------|
how I feel. Although it          seems so rare, I was

---------------------------------|
---0---0---0---0---0---0---0---0-|
---0---0---0---0---0---0---0---0-|
---------------------------------|
-0---0---0---0---0---0---0---0---|
---------------------------------|
always there.

CHORUS:
G             D                                      G
Oooh, Oooh. I can't stop digging the way you make me feel.
G             Cadd9
Oooh, Oooh. I can't stop digging the way.
G             D (one strum)
Oooh, Oooh. I can't stop digging the way you make me feel.

|---------------------------------------------|
|---0---0---0---0---0---0---------------0---0-|
|---------------------------------------------|
|---0---0---0---0---0---0-----0---------0---0-|
|---------------------------------------------|
|-3---3---3---3---3---3---0h2---0h1-2-3---3---|

[The tab for Verse 1 is the same for Verse 2, except the hammering part is
slightly different (:]

VERSE 2:
---------------------------------------------------------------|
---0---0---0---0---0---0---------0---0---0---0---0---0---0---0-|
---------------------------------0---0---0---0---0---0---0---0-|
---0---0---0---0---0---0---------------------------------------|
-------------------------------3---3---3---3---3---3---3---3---|
-3---3---3---3---3---3-----------------------------------------|
I took a little time scripting all the things that I tell you. I'll send

------------------------------------------------------|
---0---0---0---0---0---0---0---0----------------------|
---0---0---0---0---0---0---0---0----------------------|
------------------------------------------------------|
-5---5---5---5---5---5---5---5------------------------|
------------------------------------------------------|
them through the mail and if all goes well, it'd be a

-------------------------------------------|
---0---0---0---0---0---0-------------0---0-|
-------------------------------------------|
---0---0---0---0---0---0-----0-------0---0-|
-------------------------------3-3-2-------|
-3---3---3---3---3---3---0h3-----------3---|
day or two.                              I

---------------------------------------------------------------------|
---0---0---0---0---0---0---------------0---0---0---0---0---0---0---0-|
---------------------------------------0---0---0---0---0---0---0---0-|
---0---0---0---0---0---0---------------------------------------------|
-------------------------------------3---3---3---3---3---3---3---3---|
-3---3---3---3---3---3-----------------------------------------------|
spent some extra nights trying to forget the things that I've shown you.

----------------------------------------------------------------|
-------------0---0---0---0---0---0---0---0----------------------|
-------------0---0---0---0---0---0---0---0----------------------|
----------------------------------------------------------------|
-----------5---5---5---5---5---5---5---5------------------------|
----------------------------------------------------------------|
By now the smoke is cleared and all along I feared it would turn

-----------------------------------------------------------------|
---0---0---0---0---0---0---0---0---0---0---0---0---0---0---0---0-|
-----------------------------------0---0---0---0---0---0---0---0-|
---0---0---0---0---0---0---0---0---------------------------------|
---------------------------------3---3---3---3---3---3---3---3---|
-3---3---3---3---3---3---3---3-----------------------------------|
out this way. Though it          might be wrong. My light is

---------------------------------|
---0---0---0---0---0---0---0---0-|
---0---0---0---0---0---0---0---0-|
---------------------------------|
-0---0---0---0---0---0---0---0---|
---------------------------------|
always on.

CHORUS:
G             D                                      G
Oooh, Oooh. I can't stop digging the way you make me feel.
G             Cadd9
Oooh, Oooh. I can't stop digging the way.
G             D
Oooh, Oooh. I can't stop digging the way you make me feel.

G            D
Ba ba ba, ba baaa, ba ba.
C            D
Ba ba ba, ba baaa, ba ba.
G            D
Ba ba ba, ba baaa, ba ba.
C            D
Ba ba ba, ba baaa.

BRIDGE:
Cadd9     Bm          Em7           C
Look at us now, ask me how did this get so.
Cadd9        Bm            Em7           C
I'll tell you how, drag my shoes on the ground.
                   A7
But I'm taking 'em all (taking 'em all).
                 D
Now I'm ready to walk, yeah!

CHORUS:
G             D                                      G
Oooh, Oooh. I can't stop digging the way you make me feel.
G             Cadd9
Oooh, Oooh. I can't stop digging the way.
G             D                                      A
Oooh, Oooh. I can't stop digging the way you make me feel.

A
Yeah!

[Continue strumming on A alone OR let a 2nd guitar play this tab bit
after "Yeah!" while 1st guitar strums]:
|---7-7-7---3-3-3---7-7/10---8-7-5----|
|-------------------------------------|
|-------------------------------------|
|-------------------------------------|
|-------------------------------------|
|-------------------------------------|

D (one strum)
I can't stop digging the way you make me feel.

OUTRO: (slows down at the end)
|---------------------------------------|
|---0---0---0---0---0---0-------------0-|
|---------------------------------------|
|---0---0---0---0---0---0-----0-----0-0-|
|-----------------------------------0---|
|-3---3---3---3---3---3---0h3---0h1---3-|
Suggest correction
Creating personal tab
Creating personal tab
You can edit any tab online and save it as your Personal.

You can edit, replace or remove any tab part or add personal notes – all changes will be seen only by you.

Personal tabs can be accessed anytime from any device, even offline.
Learn more »
comments
print report bad tab
7 comments total. Showing first comments.
0 reply
bangbang! 20 Dec 31, 2007 12:18 PM

awwwesome. :)
thanks been looking for this tab for ages too! x

0 reply
he_rox_my_world 10 Jan 17, 2008 05:22 PM

thanks so much
ive wanted too thanks!!!!! xxx

0 reply
summer08 10 Aug 06, 2008 02:15 AM

This tab was soo awesome! ;)
Thank you!!!

guest
You may want to rate the tab now too:
select rating
Wanna post a correction for this tab? Suggest correction