Oops, an error
Loading. Please wait.

Too Close For Comfort tab

version 2
version 2

Whole song

by McFly
8,870 views 6 this week
2 commentsread comments
1 2 3 4 5
x 4
add to favorites
×
Save as Personal and add changes to this tab that will be seen only by you. Learn more ›
×
You can save this tab as Personal to edit and correct it or add notes. All changes will be seen only by you. Learn more »
launch autoscroll
font size
0
reset
how to read this tab
guitar tuner
edit
Autoscroll
slow
fast
+/-
esc
set tempo
stop
****Too Close For Comfort****
A real beautiful osng- I loved it from the first note of the intro! No one seemed to 
done a real precise tab for it, so here's my shot at it!! Try to like it... ha ha.

INTRO

    G      D      Em    C     Cm
E---10-----10-----7-----8-----8-------------------------------------|
A---10-----12-----7-----10----10------------------------------------|
D---12-----12-----9-----10----10------------------------------------|
G---12-----11-----9-----9-----8-------------------------------------|       x2
B---12-----10-----8-----8-----8-------------------------------------|
e---10-----10-----7-----8-----8-------------------------------------|

(strum each for 4 counts, except for the C and Cm, which are both strum for 2 counts)
           Em    (keep strumming)
E--------0----0--------------------0---0-----0----0---0-|
A-------2-----2-------------------2----2-----2----0---0-|
D------2------2------------------2-----2-----0----2---2-|
G-----0-------0-----------------0------0-----0----0---2-|
B----0--------0----------------0-------0-----0----0---0-|
e---0---------0---------------0--------0-----0----0---0-|


(palm mute while strumming- make loud on every C9)

Em...
I never meant the things I said
Em....
To make you cry
Em...        C C C C9 C9 C9, C C C
Can I say Im Sorry?
C9 C9 C9         D
It's hard to forget
    D          C
And yes, I regret
             G...
All these mistakes

E----0----0---0-|
A----2----0---0-|
D----0----2---2-|     (thing in middle)
G----0----0---2-|
B----0----0---0-|
e----0----0---0-|

I don't know why
You're leaving me but I know
You must have your reasons
There's tears in your eyes
I watch as you cry
But it's getting

 Em...                       Em!
late (Em gets louder as you strum)

(N.C.)   C       D
Was I in-va-ding in
          Em* Em Em* Em Em* x2
On your secrets?

Em* =  E---7-----|
       A---7-----|
       D---9-----|
       G---9-----|
       B---7-----|
       e---7-----|
                    C
Was I too close for comfort,
           D
pushing me out
               G   (soft, then gets louder as you strum)
when I wanted in?
(N.C.)      C     D        Em* Em Em* Em Em* x2
What was I just about to discover
                          C
when I got too close for comfort
             D (one strum)
driving you home?
                  Em
Guess I'll never know...

Em    (keep strumming)
E-----0--------------------0---0-----0----0---0-|
A-----2-------------------2----2-----2----0---0-|
D-----2------------------2-----2-----0----2---2-|
G-----0-----------------0------0-----0----0---2-|
B-----0----------------0-------0-----0----0---0-|
e-----0---------------0--------0-----0----0---0-|

(same as verse 1)
Remember when we scratched
Our names into the sand
You told me you loved me?
Now that I find, that
You've changed your mind
I'm lost for words.
And everything I feel for you
I wrote down on
One piece of paper-
The one in your hand-
You wont understand
How much it

G....               G!
hurts to let you go...

(CHORUS)

Bridge:
Em....                                     C...
That all this time you've been telling me lies,
                                     D...
hidden in bags that were under your eyes!
                                   Em* Em Em* Em Em*
Now when I'd ask you I knew I was right.
Em* Em Em* Em Em*                C...
But if you turn your back on me now...

When I need you most...
                     D    C#m   B
You chose to let me down!!!
Em...
Wont you think about what you're about to do to me?
          C     D
And back do-----wn?

then,
E------|
A------|
D------|
G--14--|
B--15--|
e--14--|

(slow chorus)
Was I in-

     va-ding                   in
E--------------------------------------------------------------------|
A--------------------------------------------------------------------|
D-----2------------------------0-------------------------------------|
G------0---0--------------------2------------------------------------|
B-------1-1----------------------3-----------------------------------|
e--------3------------------------2-h3-p2----------------------------|

on your se-

    crets
E-----------------------------------|
A----2------------------------------|
D-----2-----------------------------|
G------0----------------------------|   x2
B-----------------------------------|
e--------2-h3-p2--------------------|

Was I to close for
C (palm mute)
Comfort

Pushing me
D (Palm mute, one strum)
out
              G (palm mute, but gets louder into a strum)
When I wanted in?

(NC)
What was I
C (Loud, one strum)  D (")                Em* Em Em* Em Em* x2
Just                about to               discover?
When I got to close for
C...
comfort,
            D...
Pushing me out
              G
When I wanted in??
            C      D  D   Em* Em Em* Em Em* x2
What was I just about to discover?
                         C
When I got too close for comfort,
             D      (slide bass of this chord down to first fret)
Driving you home...
(NC)
Guess Ill never know.
(on 'know', start playing intro 2x, then end on:

E------0-|
A-----2--|
D----2---|
G---0----|
B--0-----|
e-0------|

It's pretty accurate. Thanks.
                                    -thevitaminkid
Suggest correction
Creating personal tab
Creating personal tab
You can edit any tab online and save it as your Personal.

You can edit, replace or remove any tab part or add personal notes – all changes will be seen only by you.

Personal tabs can be accessed anytime from any device, even offline.
Learn more »
comments
print report bad tab
2 comments total.
-1 reply
deadlydogrunner 10 Feb 13, 2009 06:23 PM

okay dude, first of all it looks like you just copied the first guy.
secondly, you made it into a bunch of chords when you put it in the tab section. And the way you made it makes it look really complicated.

0 reply
rock'nguitargal 31 Feb 15, 2012 05:12 PM

I think you did a good job! Well done! :)

guest
Wanna post a correction for this tab? Suggest correction