Oops, an error
Loading. Please wait.

Touch The Rain tab

by McFly
896 views 3 this week
no commentswrite comment
1 2 3 4 5
2 more votes to show rating
add to favorites
×
Save as Personal and add changes to this tab that will be seen only by you. Learn more ›
×
You can save this tab as Personal to edit and correct it or add notes. All changes will be seen only by you. Learn more »
launch autoscroll
font size
0
reset
how to read this tab
guitar tuner
edit
Autoscroll
slow
fast
+/-
esc
set tempo
stop
Author
Difficulty
This is the lead guitar parts to Mcfly's new song
that they've only played live so far on their
Keep Calm & Play Louder Tour. I Posted the chords 
to the song (Danny's Part except for the solo) previously.

I'm 99% sure this is correct, probably a mistake somewhere though.

Standard Tuning E,A,D,G,B,E

(there's only lead guitar in the chorus until the breakdown
and build up to the solo)

Verse (No Lead)

Chorus

E |-----------------------------------------|
B |----5--7--9--10--5--7--9--10--9--10--12--|
G |-----------------------------------------| X7
D |-----------------------------------------|
A |-----------------------------------------|
E |-----------------------------------------|

On the last bar, play:

E |----------------------------|
B |----5--7--9--10--9--10--12~-|
G |----------------------------|
D |----------------------------|
A |----------------------------|
E |----------------------------|

On the breakdown and build up to the solo,
have 8 bars of silence then any noisy variations
on A, until the last note:

E |--------|
B |--------|
G |--2~----|
D |--2~----|
A |--0~----|
E |--------|

Solo(use a Guitar Slide for the proper effect):

E |---------------------------------------------------|
B |---------------------------------------------------|
G |-1>14-14-14-14-14-14-14-14-14-14-14-16-16-16-14-13-| x2
D |---------------------------------------------------|
A |---------------------------------------------------|
E |---------------------------------------------------|

Final Chorus

Guitar 1 (Rhythm)

E |------------------------------------------|
B |------------------------------------------|
G |--7777777-1111111111111111-99999999-------|
D |--7777777-1111111111111111-99999999-------| x7
A |--5555555-9-9-9-9-9-9-9-9-77777777--------|
E |------------------------------------------|

E |------------------------------|
B |------------------------------|
G |--9-9-9-9-99-9~---------------|
D |--9-9-9-9-99-9~---------------|
A |--7-7-7-7-77-7~---------------|
E |------------------------------|

Guitar 2 (Lead)

E |-----------------------------------------|
B |----5--7--9--10--5--7--9--10--9--10--12--|
G |-----------------------------------------|
D |-----------------------------------------| x7
A |-----------------------------------------|
E |-----------------------------------------|

E |--------------------------------------------|
B |----5--7--9--10--9--10--12-12-12-12-1212-12~|
G |--------------------------------------------|
D |--------------------------------------------|
A |--------------------------------------------|
E |--------------------------------------------|

            
            
Suggest correction
Creating personal tab
Creating personal tab
You can edit any tab online and save it as your Personal.

You can edit, replace or remove any tab part or add personal notes – all changes will be seen only by you.

Personal tabs can be accessed anytime from any device, even offline.
Learn more »
Give kudos to tab author, rate the tab!
1 2 3 4 5
comments
print report bad tab
guest
You may want to rate the tab now too:
select rating
Wanna post a correction for this tab? Suggest correction