Oops, an error
Loading. Please wait.

Transylvania tab

version 2
version 2

Whole song

Interactive

by McFly
13,667 views 1 this week
3 commentsread comments
1 2 3 4 5
x 4
add to favorites
×
Save as Personal and add changes to this tab that will be seen only by you. Learn more ›
×
You can save this tab as Personal to edit and correct it or add notes. All changes will be seen only by you. Learn more »
launch autoscroll
font size
0
reset
how to read this tab
guitar tuner
edit
Autoscroll
slow
fast
+/-
esc
set tempo
stop
Amazing Song An I Just Really Wanted To learn It But The Other Tabs Were Good But 
Wrong On A Few Bits So Here Is My Try An I’m Pretty Sure Its About 90% Right…So Enjoy

Intro/Verse
||---------------------------------------------------------------||
||---------------------------------------------------------------||
||----------6----------------6-----------------------------------||
||--9-6-9-6---5-6-5--9-6-9-6---5-6-4-----------------------------||
||-----------------------------------7-9-7-6-4-6-4-2-1--6-4-2-1--||
||---------------------------------------------------------------||

||------------------------------------||
||------------------------------------||
||------------------------------------||
||------------------------------------||
||--6-4-2-1--6-4-2-1--6-4-2-1--6-4-2--||
||------------------------------------||

Chorus
||--11----11----7----7----|-11----11----9-----7--||
||--12----11----9----7----|-12----11----11----7--||
||--13----11----9----8----|-13----11----11----8--||
||--13----13----9----9----|-13----13----11----9--||
||--11----13----7----9----|-11----13----9-----9--||
||--------11---------7----|-------11----------7--||

Bit After Chorus
||--7----7-----------11----11--||
||--9----7--Single---11----12--||
||--9----8--Picking--12----13--||
||--9----9-----------13----13--||
||--7----9-----------13----11--||
||-------7-----------11--------||

                      ^ This bit isplayed after playin the 1st 2
                        chords a few times

Verse
||---------------------------------------------------------------||
||---------------------------------------------------------------||
||----------6----------------6-----------------------------------||
||--9-6-9-6---5-6-5--9-6-9-6---5-6-4-----------------------------||
||-----------------------------------7-9-7-6-4-6-4-2-1--6-4-2-1--||
||---------------------------------------------------------------||

||------------------------------------||
||------------------------------------||
||------------------------------------||
||------------------------------------||
||--6-4-2-1--6-4-2-1--6-4-2-1--6-4-2--||
||------------------------------------||

I Cant Workout What The Electric Guitar Is Doing At This Part But Its Like On The High E 
Near Fret 15-21

Chorus
||--11----11----7----7----|-11----11----9-----7--||
||--12----11----9----7----|-12----11----11----7--||
||--13----11----9----8----|-13----11----11----8--||
||--13----13----9----9----|-13----13----11----9--||
||--11----13----7----9----|-11----13----9-----9--||
||--------11---------7----|-------11----------7--||

Bit After Chorus
||--7----7-----------11----11--||
||--9----7--Single---11----12--||
||--9----8--Picking--12----13--||
||--9----9-----------13----13--||
||--7----9-----------13----11--||
||-------7-----------11--------||

I Cant Work Out The Solo At The Moment Because I Only Have My Acoustic On Me An I Cant 
It Out On My Acoustic.
But Its Played Over The Chorus.

Chorus
People Marching To The Drums Everybody’s Having Fun. . .
||-----------------------------------------------7--||
||----------------------------------------8/9----7--||
||----------------------------------------8/9----8--||
||----------------------------------------8/9----9--||
||----------------------------------------6/7----9--||
||-----------------------------------------------7--||

||--11----11----7----7----||
||--12----11----9----7----||
||--13----11----9----8----||
||--13----13----9----9----||
||--11----13----7----9----||
||--------11---------7----||

Bit After Chorus
||--7----7-----------11-----||
||--9----7--Single---11-----||
||--9----8--Picking--12-----||
||--9----9-----------13-----||
||--7----9-----------13-----||
||-------7-----------11-----||

         ^ Play For A Lot More This Time

If Anything Is Wrong Or Anyone Else Can Figure Out The Solo E-mail Me At Madbrad1989@hotmail.com

Hope You Enjoy Playing It
Suggest correction
Creating personal tab
Creating personal tab
You can edit any tab online and save it as your Personal.

You can edit, replace or remove any tab part or add personal notes – all changes will be seen only by you.

Personal tabs can be accessed anytime from any device, even offline.
Learn more »
comments
print report bad tab
3 comments total.
0 reply
Gio!AtThe Disco 10 Aug 26, 2009 01:25 PM

this tabs great & i love the chorus bit (:

0 reply
Gio!AtThe Disco 10 Aug 26, 2009 01:26 PM

this tabs great! & i love the chorus (:

0 reply
WakeUpDrWest 21 Jun 06, 2011 12:37 PM

I think on the verse it should go-7-9-7-6-4-6-4-2-1-5
The 5 makes it sound better :D

guest
Wanna post a correction for this tab? Suggest correction