Oops, an error
Loading. Please wait.

Transylvania bass

version 3
version 3

Whole song

Interactive

by McFly
1,972 views 1 this week
no commentswrite comment
1 2 3 4 5
2 more votes to show rating
add to favorites
×
Save as Personal and add changes to this tab that will be seen only by you. Learn more ›
×
You can save this tab as Personal to edit and correct it or add notes. All changes will be seen only by you. Learn more »
launch autoscroll
font size
0
reset
guitar tuner
edit
Autoscroll
slow
fast
+/-
esc
set tempo
stop
"Anne Boleyn she kept ..."
---------------------------
---------------------------
---no bass---------------
---------------------------

"Leaves a note ..."
----------------|
----------------|
----------------|
-----------4----|

"Can feel the lump..."
----------------|
----------------|
----------------|
-----------4----|


"Its raining..."
----------------|----------|----------------|
----------------|----------|----------------|
---------7------|-----4----|----------------|
----------------|----------|----------6-----|

"We're sorry..."
--------------|---------|--------------|
--------------|---------|--------------|
--6-----------|--x3-----|----6---------|
-----9-7-6----|---------|------9-7-X---|

"People Marching...."
----4---4-|---------|---------|---------|
--6---6---|---4---4-|---6---6-|---------|
----------|-6---6---|-7---7---|---6---6-|
----------|---------|---------|-7---7---|

"Uggly is the world..."
----4---4-|---------|---------|-----------|
--6---6---|---4---4-|---7---7-|-----------|
----------|-6---6---|-9---9---|-----6-----|
----------|---------|---------|-7-9---7---|

"Who Is you lover?"
--------------|---------|------------|--------------|
--------------|---------|------------|--------------|
--7--X--X-----|-6-X-X-X-|-4-X-X-X----|-6--X----*6---|
-----------*7-|---------|----------*7|-------7---*7-|

"Who Is you lover?"
-----------|---------|---------|-----------|
-----------|---------|---------|-----------|
-9-X-X-----|-6-X-X-X-|-6-6-6-6-|-----X-X-X-|
--------*7-|---------|---------|-4---------|

"Racing, peacing..."
----------|---------|---------|---------|----------|
----------|---------|---------|---------|----------|
----------|-6-6-6-6-|---------|-6-6-6-9-|-----9-7--|
--4-4-4-4-|---------|-4-4-4-4-|---------|-7-7------|

"But his hearth..."
---------|---------|-----------------------------|
---------|---------|-----------------------------|
---------|---------|-*6-*6----------*7-*7--------|
-9-9-9-9-|-6-6-6-6-|--------*9-*9----------*6-*6-|

"We're sorry..."
--------------|---------|--------------|
--------------|---------|--------------|
--6-----------|--x3-----|----6---------|
-----9-7-6----|---------|------9-7-X---|

"People Marching...."
----4---4-|---------|---------|---------|
--6---6---|---4---4-|---6---6-|---------|
----------|-6---6---|-7---7---|---6---6-|
----------|---------|---------|-7---7---|

"Uggly is the world..."
----4---4-|---------|---------|-----------|
--6---6---|---4---4-|---7---7-|-----------|
----------|-6---6---|-9---9---|-----6-----|
----------|---------|---------|-7-9---7---|

"Who Is you lover?"
--------------|---------|------------|--------------|
--------------|---------|------------|--------------|
--7--X--X-----|-6-X-X-X-|-4-X-X-X----|-6--X----*6---|
-----------*7-|---------|----------*7|-------7---*7-|

"Who Is you lover?"
-----------|---------|---------|-----------|
-----------|---------|---------|-----------|
-9-X-X-----|-6-X-X-X-|-6-6-6-6-|-----X-X-X-|
--------*7-|---------|---------|-4---------|

"--having fun to..."
---------|---------|
---7---7-|---------|
-9---9---|-----6---|
---------|-7-9---7-|

"Uggly is the world..."
----4---4-|---------|---------|-----------|
--6---6---|---4---4-|---7---7-|-----------|
----------|-6---6---|-9---9---|-----6-----|
----------|---------|---------|-7-9---7---|

Credits:
http://dougie.mcflyaddiction.com.br/

            
            
Suggest correction
Creating personal tab
Creating personal tab
You can edit any tab online and save it as your Personal.

You can edit, replace or remove any tab part or add personal notes – all changes will be seen only by you.

Personal tabs can be accessed anytime from any device, even offline.
Learn more »
Give kudos to tab author, rate the tab!
1 2 3 4 5
comments
print report bad tab
guest
Wanna post a correction for this tab? Suggest correction