Oops, an error
Loading. Please wait.

Transylvania Acoustic chords

version 6
version 6

Interactive

by McFly
595 views 18 this week
no commentswrite comment
1 2 3 4 5
1 last vote to show rating
add to favorites
×
Save as Personal and add changes to this tab that will be seen only by you. Learn more ›
×
You can save this tab as Personal to edit and correct it or add notes. All changes will be seen only by you. Learn more »
launch autoscroll
font size
0
reset
transpose
0
reset
simplify chords
display chords
guitar tuner
edit
Autoscroll
slow
fast
+/-
esc
set tempo
stop
Strumming
There is no strumming pattern for this song yet. and get +5 IQ
Heya! I was trying to play this song, but the other version didn't sound like this 
video: https://www.youtube.com/watch?v=aJF8kR0VAhM
It's the Dougie and Tom version of Transylvania, I hope you like it!
There's a riff (NOT RELATIVE TO CAPO), but also I added the chords on the pre-chorus so you can play with 
two guitars or just the riff. Also, there is a solo with no need of companion chords in the back because 
the two guitars are playing it in the video. :-)


Here's the riff:

e|-----------------------------------|
B|-----------------------------------|
G|-----------------------------------|
D|-----------------------------------|
A|-----------------------------------|
E|---8-8---6-6---4-4---3-3-----------| 




Capo 1st fret.



Verse 1: 

Em               B7
Anne Boleyn she kept a tin,
      Em                  B7
Which all her hopes and dreams were in,
      C           Am              F#        (riff)
She plans to run away with him, forever (never to be seen again)
Em                  B7
Leaves a note and starts to choke,
     Em                  B7
Can feel the lump that's in her throat,
        C              Am                 F#
It's raining and she leaves her coat in silence.


Pre-chorus:
(Instead of chords, you can play the riff)

B7
We're sorry but we disagree
B7
The boy is vermin, can't you see?
B7
We'll drown his sins and misery
B7
And rip him out of history


Chorus:

Em                      Bm
People marching to the drums,
                    C                   G      D
Everybody's having fun to the sound of love,
Em                      Bm
Ugly is the world we're on
                            Dm
If I'm right then prove me wrong
                 G       G/F#
I'm stunned to find a place we belong

C            G
Who is your lover,
            Am
I couldn't tell,
                   G
When hell freezes over,
               C
That's when I tell,
              G
Who is your lover,
            B7
I couldn't tell,
                Em
When will this stop.


Verse 2:

Em              B7
Racing, pacing, in the dark,
      Em                B7
She's searching for a lonely heart,
      C                Am
She finds him but his heart had stopped,
      F#
She breaks down.

Pre-chorus:
(Instead of chords, you can play the riff)

B7
Sorry but your majesty,
B7
Refusing orders from the queen
B7
Results in a monstrosity
B7
Remembers a voice and hears him sing

Em                      Bm
People marching to the drums,
                    C                   G      D
Everybody's having fun to the sound of love,
Em                      Bm
Ugly is the world we're on
                            Dm
If I'm right then prove me wrong
                 G       G/F#
I'm stunned to find a place we belong

C             G
Who is your lover,
            Am
I couldn't tell,
                   G
When hell freezes over,
               C
That's when I tell,
              G
Who is your lover,
            B7
I couldn't tell,
                Em
When will this stop.



Solo (not relative to capo)

e|-----------------------------------|
B|-----------------------------------|
G|-----------------------------------|
D|-----------------------3-------3---|
A|-----6---------6-----5----5(5)-----|
E|---8------8(8)---------------------|

e|-----------------------------------|
B|-----------------------------------|
G|-----4-----4-----------------------|
D|---5---5(5)------------------------|
A|--------------------6--------6-----|
E|------------------4-----4(3)-------|

e|-----------------------------------|
B|-----------------------------------|
G|-----------------------------------|
D|-----------------------3-------3---|
A|-----6---------6-----5----5(5)-----|
E|---8------8(8)---------------------|

e|-----------------------------------|
B|-----------------------------------|
G|-----4-----4-----------------------|
D|---5---5(5)------------------------|
A|-----------------666666666---------|
E|-----------------444433333---------|



Chorus:

Em   (stop)
People marching to the drums,
          Bm        C                    G       D
Everybody's having fun to the sound of love,
Em                      Bm
Ugly is the world we're on
                             C
If I'm right then prove me wrong
                 G      G/F#
I'm stunned to find a place we belong

C             G
Who is your lover,
            Am
I couldn't tell,
                   G
When hell freezes over 
                       C
to find a place we belo-oh-ong
              G
Who is your lover...

e|-----------------------------------|
B|-----------------------------------|
G|-----------------------------------|
D|-----------------------------------|
A|-----------------------------------|
E|---8-----6-----4-----3-------------| 


e|-----------------------------------|
B|-----------------------------------|
G|-----------------------------------|
D|-----------------------------------|
A|-----------------------------------|
E|---8-8---6-6---4-4---3-3-----------|   x2 

e|-----------------------------------|
B|-----------------------------------|
G|-----------------------------------|
D|-----------------------------------|
A|-----------------------------------|
E|---0-------------------------------|     (or Em)
Suggest correction
Creating personal tab
Creating personal tab
You can edit any tab online and save it as your Personal.

You can edit, replace or remove any tab part or add personal notes – all changes will be seen only by you.

Personal tabs can be accessed anytime from any device, even offline.
Learn more »
Give kudos to tab author, rate the tab!
1 2 3 4 5
comments
print report bad tab
guest
You may want to rate the tab now too:
select rating
Wanna post a correction for this tab? Suggest correction