Oops, an error
Loading. Please wait.

Walk In The Sun Tab

version 1
version 1

Whole song

Interactive

80,158 views 48 this week
7 commentsread comments
1 2 3 4 5
x 32
add to favorites
launch autoscroll
font size
0
reset
how to read this tab
guitar tuner
Autoscroll
slow
fast
+/-
esc
set tempo
stop
Help us to improve Ultimate-Guitar.com Take our survey!
×
Author
Capo
McFly
Walk In The Sun
Album: Motion In The Ocean
Transcribed by Soch Hean

Capo 4th Fret (all relative to capo)


Intro:
|-0h2---2-------0h2---3-2p0-------------0------------0h2---2------0h2---3-2p0----|
|-3-----3-------3-----3-3---3-3-------------3--------3-----3------3-----3-3------|
|-----------------------------0--------------------------------------------------|
|-0---0----0--0-----0---------0---0-4h5---4---4--0-0-0---0----0-0-----0----------|
|--------------------------------------------------------------------------------|
|-------------------------------3------------------------------------------------|

|------------------------------0h2---2-------0h2---3-2p0--------------0----------|
|-2-------3------5---5--5------3-----3-------3-----3-3---3-3--------------3------|
|-2--------------------------------------------------------0---------------------|
|-----2s4----4s5---5------0-0--0---0----0--0-----0---------0----0-4h5---4---4----|
|-0------------------------------------------------------------------------------|
|-------------------------------------------------------------3------------------|

|-----0h2---2------0---0--0--------------------0----------|
|-----3-----3------2---2--2------3----3--0--3-------------|
|---------------------------2----0----0--0--2-----2-------|
|-0-0-0---0---0-0-------------------0-------0-------0-0---|
|------------------0-0-------------------2----------------|
|--------------------------------3----3-------------------|



Verse:
D                               G
I wonder what it's like to be loved by you
D                              A7
I wonder what its like to be whole
D                                G
And I don't walk when there's a stone in my shoe
       D             A            G   D
All I know, that in time I'll be fine
D                           G
I wonder what it's like to fly so high
D                        A7
Or to breathe under the sea
D                            G
I wonder if someday I'll be good with goodbyes
             D           A              G   D
But I'll be okay if you come along with me



Chorus:
G                        D
Such a long, long way to go
G                        D
Where I'm going I don't know
G                       D
I'm just following the road
            A      G
For a walk in the sun
                  A7
For a walk in the sun


Verse:
D                        G
I wonder how they put a man on the moon
D                           A7
I wonder what it's like up there
D                        G
I wonder if you'll ever sing this tune
       D            A             G  D
All I know is the answers in the air



[Chorus]


Bridge:
Bm      
Sitting and watching the world going by
       A
Is it true when we die we go up to the sky?
G
Whoa, Whoa
Bm
So many things that I don't understand
        A                                        G
Put my feet in the sand when I'm walking in the sun
               A7
Walking in the sun


[Play Chorus]
Suggest correction
comments
print report bad tab
7 comments total. Showing first comments.
0 reply
beefcake 28 10 Nov 29, 2006 09:26 PM

Gr8 tab... can you tab the rest of it for me like you did with the intro :-)

0 reply
lifehouse_rock9 97 Jan 24, 2007 11:54 PM

isnt the intro repeated throughout the song?

+4 reply
mcfly33192 10 Dec 06, 2007 11:31 PM

Noope its not repeated but anyway we'd all love u even more if u could tab the whole of this great song
GREAT Tab by
the way!
Love it

guest
You may want to rate the tab now too:
select rating
Wanna post a correction for this tab? Suggest correction