Oops, an error
Loading. Please wait.

We Are The Young bass

version 1
version 1

Whole song

Interactive

by McFly
322 views 1 this week
no commentswrite comment
1 2 3 4 5
x 3
add to favorites
×
Save as Personal and add changes to this tab that will be seen only by you. Learn more ›
×
You can save this tab as Personal to edit and correct it or add notes. All changes will be seen only by you. Learn more »
launch autoscroll
font size
0
reset
guitar tuner
edit
Autoscroll
slow
fast
+/-
esc
set tempo
stop
-----------------------------------------------------------------------------
                        We Are The Young - Mcfly
-----------------------------------------------------------------------------
Tabbed by: BlenderBR
E-mail: fabiosignori.zero@hotmail.com

 - Intro

G|-------------------|
D|-------------------|
A|---5---------------|   
E|------2-3----------|

G|-------------------|
D|-------------------|
A|---5---------------|   
E|------2-3---33333--|

-  Verse 1
(We've got a situation there always putting us down...)

G|------------------------------------------------------|
D|--------------------5-5-5------------------5-5-5------|
A|---5555555505--------------5555555505-----------------|
E|---------------333333333---------------33333333-------|

(Is it my imagination, or do you feel good?...)

G|----------------------------------------------------|
D|----------------------------------------------------|
A|-------------------55555--00000---------------------|
E|----55--543--3333-----------------------------------|

(We're on a one way mission, we can take it or die...)

G|---------------------------------------------------------|
D|--------------------5-5-5---------------------5-5-5------|
A|---5555555505-----------------5555555505-----------------|
E|---------------333333333--023-------------33333333-------|

(Is it my imagination, or do you feel good?...)

G|----------------------------------------------------|
D|----------------------------------------------------|
A|-------------------55555--00000---------------------|
E|----55--543--3333-----------------------------------|

 -  Chorus
(What a day, What a day, What a day...)

G|-----------------------------------------|
D|-----------------------------------------|
A|---5----------5--------------------------|
E|-------2-3--------2-3--3333333-----------|

(Running the world It's the time of our lives...)

G|----------------------------------------------------------------|
D|----------------------------------------------------------------|
A|---------------------------------------55555050505-1717171717*--|
E|--0000000-222222-333333-5555555---3-5---------------------------|
* 17, not 1-7


 -  Verse 2
(We've gotta stop this feeling...)

G|-------7--------------------------------------------|
D|---------------5-5-5---------------------5-5-5------|
A|---5---------------------5555555505-----------------|
E|----------333333333--023-------------33333333-------|

(Is it my imagination, or do you feel good?...)

G|----------------------------------------------------|
D|----------------------------------------------------|
A|-------------------55555--00000---------------------|
E|----55--543--3333-----------------------------------|

 -  Chorus
(What a day, What a day, What a day...)

G|----------------------------------------------------------------------|
D|----------------------------------------------------------------------|
A|---5--------------5-------------------------------------------|
E|-------2-3--/15------2-3--3333333------------------------------|

(Running the world It's the time of our lives...)

G|--------------------------------------------------------------------------|
D|--------------------------------------------------------------------------|
A|--------------------------------------------------55555050505-1717171717*-|
E|--0000000-222222-333333-5555-171717171717*--3-5---------------------------|
* 17, not 1-7

 -  Brigde (Guitar Solo)

G|--------------------------------------------------------------------------|
D|--------------------------------------------------------------------------|
A|--55050505055505050-543210-----------555050505---------------55555-00000--|
E|---------------------------333030303-----------55-543-030303--------------|

 -  Chorus
(What a day, What a day, What a day...)

G|-----------------------------------------|
D|-----------------------------------------|
A|---5----------5--------------------------|
E|-------2-3--------2-3--3333333-----------|

(Running the world It's the time of our lives...)

G|------------------------------------------------------------|
D|------------------------------------------------------------|
A|------------------------------------------------------------|
E|--00000-22222-33333-5555-00000-22222-33333-5555555---3-5----|

 -  Chorus
(What a day, What a day, What a day...)

G|---------------------------|
D|---------------------------|
A|--5555555---------3330303--|    4x
E|----------3333333----------|

(Is it my imagination (No!)...)

G|---------------------------------------------|
D|---------------------------------------------|
A|--55-54333---55-54333---1717-171615*----5----|
E|---------------------------------------------|
* 17, 16 e 15

            
            
Suggest correction
Creating personal tab
Creating personal tab
You can edit any tab online and save it as your Personal.

You can edit, replace or remove any tab part or add personal notes – all changes will be seen only by you.

Personal tabs can be accessed anytime from any device, even offline.
Learn more »
Give kudos to tab author, rate the tab!
1 2 3 4 5
comments
print report bad tab
guest
You may want to rate the tab now too:
select rating
Wanna post a correction for this tab? Suggest correction