Oops, an error
Loading. Please wait.

Fuck This Band tab

version 1
version 1

Whole song

Interactive

by mclusky
1,712 views 1 this week
2 commentsread comments
1 2 3 4 5
x 3
add to favorites
×
Save as Personal and add changes to this tab that will be seen only by you. Learn more ›
×
You can save this tab as Personal to edit and correct it or add notes. All changes will be seen only by you. Learn more »
launch autoscroll
font size
0
reset
how to read this tab
guitar tuner
edit
Autoscroll
slow
fast
+/-
esc
set tempo
stop
Author
-------------------------------------------------------------------------------
                             F*ck This Band - Mclusky
-------------------------------------------------------------------------------

Artist: Mclusky
Album:  Do Dallas
Song:   F*ck  This Band

Tabbed by: SsPunk

Email: Lithium_monkey@hotmail.com

Tuning: Bass Standard (E A D G)

Intro, Verse, chorus, and the whole song:

G|---------------------------------|---------------------------------|
D|-----------------5---5---7---5---|-5---2---2-----------------------|
A|-3---3---5---3-------------------|-------------5---5---3---5---7---|
E|---------------------------------|---------------------------------|


Guitar part (not in the recorded song, but I like to play this)

e|-----------------3---3---5---3---|------------------------------0--|
B|-1---1---3---1-------------------|---------------------1-----------|
G|---------------------------------|-0---9---9---7---0-------2-------|
D|---------------------------------|---------------------------------|
A|---------------------------------|---------------------------------|
E|---------------------------------|---------------------------------|

            
            
Suggest correction
Creating personal tab
Creating personal tab
You can edit any tab online and save it as your Personal.

You can edit, replace or remove any tab part or add personal notes – all changes will be seen only by you.

Personal tabs can be accessed anytime from any device, even offline.
Learn more »
Give kudos to tab author, rate the tab!
1 2 3 4 5
comments
print report bad tab
2 comments total.
0 reply
SsPunk 140 Aug 04, 2004 08:00 PM

G|---------------------------------|---------------------------------|
D|-----------------5---5---7---5---|-5-/-2---2-----------------------|
A|-3---3---5---7-------------------|-------------5---5---3---5---7---|
E|---------------------------------|---------------------------------|

0 reply
SsPunk 140 Aug 04, 2004 08:00 PM

tthere is a guitar part somewhererandom in here, ill try to tab it out and ill post it here

guest
You may want to rate the tab now too:
select rating
Wanna post a correction for this tab? Suggest correction