Oops, an error
Loading. Please wait.

What Weve Learned Bass

by mclusky
689 views 3 this week
1 commentread comment
1 2 3 4 5
2 more votes to show rating
add to favorites
launch autoscroll
font size
0
reset
guitar tuner
×
Best way to learn
"What Weve Learned"
Autoscroll
slow
fast
+/-
esc
set tempo
stop
Author
----------------------------------------------------------------------------
			     What we've learned - Mclusky
----------------------------------------------------------------------------

Tabbed By: Mclusky lover 
e-mail:ultamate_roadkill@hotmail.com 

Tuning:EADG

G|-------------------------------------------------------------------------|
D|-------------------------------------------------------------------------|
A|-------------------------------------------------------------------------|
E|-5--5-5--5-5--5-5-4-4-0-1--1-1--1-3--3--3-3-3----------------------------|

Amazing song, Amazing band shame they split!
www.mclusky.net
Suggest correction
Give kudos to tab author, rate the tab!
1 2 3 4 5
comments
print report bad tab
1 comment total.
0 reply
patrickjohnston 1,357 Jun 14, 2016 05:29 AM

"Including, but not exclusive to"

G|----------|
D|----------|
A|----------|
E|--1~--3~--|


"Should've known better than we do"

G|---------------------------|
D|---------------------------|
A|--0-0-0-0-3-3-3-3----------|
E|------------------1-1-1-1--|


End on:

G|------|
D|------|
A|--0~--|
E|------|


The rest is good though.

guest
You may want to rate the tab now too:
select rating
Wanna post a correction for this tab? Suggest correction