Oops, an error
Loading. Please wait.

Bitch Tab

222 views 1 this week
no commentswrite comment
1 2 3 4 5
please rate
add to favorites
launch autoscroll
font size
0
reset
how to read this tab
guitar tuner
Autoscroll
slow
fast
+/-
esc
set tempo
stop
Help us to improve Ultimate-Guitar.com Take our survey!
×
Difficulty
novice
Bitch - McQueen

Tabbing by Oni

Its not correct but then they never really are, are they? Thanks to Andy Goblin for 
me out with this and for McQueen for adding a few songs to the soundtrack of my life. Great 
- http://www.mcqueenmusic.com


 Tablature explanation
  ---------------------
    B      Full Bend
    b      1/2  Bend
    bb     1/4  Bend
  ~~~~~    Tremolo
   ^(#)    Bend to (#)
    /      Slide up
    \      Slide down
    h      Hammer-on
    p      Pull-off
   (#)     Ghost note
    %      Rest


Standard Tuning.

Riff 1:

e|--------------------------------------------------------------|
B|--------------------------------------------------------------|
G|--------------------------------------------------------------|
D|-----5--5--55---2--2-- 22----5---5---55---2---12--12\5--------|
A|-----3--3--33---2--2---22----3---3---33---2-------------------|
E|--------------------------------------------------------------|

Riff 2:

e|--------------------------------------------------------------|
B|--------------------------------------------------------------|
G|--------------------------------------------------------------|
D|--------------------------------------------------------------|
A|-2-2--22--2-2--22---3-3--33--3-3--3--2-2--22--2-2--22---------|
E|-0-0--00--0-0--00---1-1--11--1-1--1--0-0--00--0-0--00---------|


e|--------------------------------------------------------------|
B|--------------------------------------------------------------|
G|--------------------------------------------------------------|
D|--------------------------------------------------------------|
A|---3-3--33--3-3--3--------------------------------------------|
E|---1-1--11--1-1--1--------------------------------------------|

Do some hammering and pull offs on the last few power chords.

Riff 3:

e|---------------------------------------------------------------|
B|---------------------------------------------------------------|
G|---------------------------------------------------------------|
D|---------------------------------------------------------------|
A|--7-7-7-77-77-7-5/8---8888888\5-5--7-7-7-77-77-7-5/8---8888888-|
E|--5-5-5-55-55-5-3/9---9999999\3-3--5-5-5-55-55-5-3/9---9999999-|

Riff 4:

e|--------------------------------------------------------------|
B|--------------------------------------------------------------|
G|--------------------------------------------------------------|
D|--------------------------------------------------------------|
A|-3333-3333--5555---5555---3333-3333--5555---5555--------------|
E|-1111-1111--3333---3333---1111-1111--3333---3333--------------|

Riff 5:

e|--------------------------------------------------------------|
B|--------------------------------------------------------------|
G|--------------------------------------------------------------|
D|-88------88---------------------------------------------------|
A|-66--88--66--887----------------------------------------------|
E|-----66------665----------------------------------------------|

Solo:

I'll let Andy fill this one in! :P

Almost got it figured

Order:

"Intro": Riff 1

"What do you want from me...": Riff2

"I'm not Sorry" : Riff 3

"You had it comin to ya": Riff 4

Chorus: Riff 1 - The third time around, miss off the last slide. Cat plays it twice on the record.

"You think you're so misunderstood": Riff 5

Solo.

"Im not....sorry" Riff 1 But played a little slower.

"BITCH!"

Riff5

"BITCH!" Hit a chord really loud! :P
Suggest correction
Give kudos to tab author, rate the tab!
1 2 3 4 5
comments
print report bad tab
guest
You may want to rate the tab now too:
select rating
Wanna post a correction for this tab? Suggest correction