Oops, an error
Loading. Please wait.

Running Out Of Things To Say Tab

363 views 1 this week
no commentswrite comment
1 2 3 4 5
x 3
add to favorites
launch autoscroll
font size
0
reset
how to read this tab
guitar tuner
Autoscroll
slow
fast
+/-
esc
set tempo
stop
Help us to improve Ultimate-Guitar.com Take our survey!
×
Author
Difficulty
intermediate
Author/Artist: Mcqueen
Title: Running out of things to say
Transcribed by: L33
Email: kidrocker@hotmail.com
Link:http://www.mcqueenmusic.com/

----------------------------------------------------------------------------|
----------------------------------------------------------------------------|
-999---------------------8--8-8-8-8-----------------------------------------|
-999-9-1010--------------8--8-8-8-8-----------------------------------------|
-777-9-1010------222-333-6--6-6-6-6-----------------------------------------|
-----7-8-8--7783------------------------------------------------------------|
Intro

----------------------------------------------------------------------------|
----------------------------------------------------------------------------|
---444-555-8--8-8-8-8-------------------------------------------------------|
---444-555-8--8-8-8-8-------------------------------------------------------|
---222-333-6--6-6-6-6-------------------------------------------------------|
----------------------------------------------------------------------------|
Verse

----------------------------------------------------------------------------|
----------------------------------------------------------------------------|
----------------------------------------------------------------------------|
--2-----9-----10-----5----9-------------------------------------------------|
--2-x16-9-x16-10-x16-5-x8-9-x8----------------------------------------------|
--0-----7-----9------3----7-------------------------------------------------|
Chorus

-----------------------------------------------------------------------------|
-----------------------------------------------------------------------------|
--77777-9--------------------------------------------------------------------|
--77777-9-999-10-9-5---4/55-55---4/55-55-------------------------------------|
--55555-7-999-10-9-5---4/55-55---4/55-55-------------------------------------|
----------777--8-7-3---2/33-33---2/33-33-------------------------------------|
interlude

----------------------------------------------------------------------------|
----------------------------------------------------------------------------|
-999-16-1616-14-1414-12-1212--888-16-1616-14-1414-11-1111-------------------|
-xxx--x--x-x--x--x-x--x--x-x--xxx--x--x-x--x--x-x--x--x-x-------------------|
-777-14-1414-12-1212-10-1010--666-14-1414-12-1212--9--9-9-------------------|
----------------------------------------------------------------------------|
solo

-----------------------------------------------------------------------------|
-----------------------------------------------------------------------------|
-12-1212-14-1414-16-1616-1111------------------------------------------------|
--x--x-x--x--x-x--x--x-x--x-x------------------------------------------------|
-10-1010-12-1212-14-1414--9-9---------10----10-7----9----14------------------|
----------------------------------/12----12------10---10---------------------|
solo continued

----------------------------------------------------------------------------|
----------------------------------------------------------------------------|
-999-16-1616-14-1414-12-1212--8------16------17------/-16----/-16-----------|
-xxx--x--x-x--x--x-x--x--x-x--x--x8---x--x8---x--x16-/--x--x8/--x--x8-------|
-777-14-1414-12-1212-10-1010--6------14------15------/-14----/-14-----------|
----------------------------------------------------------------------------|
solo continued
Suggest correction
Give kudos to tab author, rate the tab!
1 2 3 4 5
comments
print report bad tab
guest
You may want to rate the tab now too:
select rating
Wanna post a correction for this tab? Suggest correction