Oops, an error
Loading. Please wait.

On The Road chords

532 views 15 this week
no commentswrite comment
1 2 3 4 5
1 last vote to show rating
add to favorites
×
Save as Personal and add changes to this tab that will be seen only by you. Learn more ›
×
You can save this tab as Personal to edit and correct it or add notes. All changes will be seen only by you. Learn more »
launch autoscroll
font size
0
reset
transpose
0
reset
display chords
guitar tuner
edit
Autoscroll
slow
fast
+/-
esc
set tempo
stop
Author
Strumming
There is no strumming pattern for this song yet. and get +5 IQ
ME AND THAT MAN - ON THE ROAD

album version - SONGS OF LOVE AND DEATH
________________________________________
________________________________________

The main rhythm of the song is something like this:

   Gm                   G Bb              
e|----------------------------|
b|-3--x-x-x-3--x-x-x-x--0-3---|
g|-3--x-x-x-3--x-x-x-x--0-3---|
d|-5--x-x-x-5--x-x-x-x--------| 
a|-5--x-x-x-5--x-x-x-x--------|
e|-3--x-x-x-3--x-x-x-x--------|
________________________________________


[INTRO]

N.C.
I'm on the road, I been here so long
N.C.
Just like one of them stars in a black sky

Gm G Bb
Gm G Bb
Gm G Bb


[VERSE ONE]

Gm      G  Bb  Gm  G Bb 
    I'm on the road
Gm       G     Bb   Gm    G Bb
    I've drunk from skulls
Gm      G  Bb  Gm   G Bb
    I'm on the road
Gm              G  Bb     Gm   G Bb 
   I've covered myself in bones


[PRE CHORUS]

Gm          G    Bb Cm                     Gm   G Bb
   And I'll kiss a  lion and I've embraced death
Gm      G  Bb  Cm   C Cm   C
   I've ridden love,  love
Bb                       F
I've ridden love til its very last breath


[CHORUS]

   Gm                                C
e|--------------------------------------------|
b|-3p0------3p0------------3p0------------5---|
g|-----3h5------3h5-5~-5~------3h5-5-5----5---|
d|-----------------------------------5----5---|x2
a|-----------------------------------3----3---|
e|--------------------------------------3---3-|


[VERSE TWO]

               Gm         G  Bb
    I'm on the road (he's on the road)
Gm           G    Bb  Gm   G Bb 
    And I've seen the lies
Gm      G  Bb  Gm         G  Bb
    I'm on the road (he's on the road)
Gm                   G      Bb Gm G  Bb
     Many souls have passed me by


[PRE CHORUS]

Gm    G    Bb  Cm                                          Gm   G Bb
    I felt the wonder wonder wonder being washed up by the tide
Gm       G  Bb  Cm   C Cm   C
    I've ridden love,  love
Bb               F
I've ridden love over to the other side


[CHORUS]

   Gm                                C                Gm
e|--------------------------------------------|     e|----|
b|-3p0------3p0------------3p0-------5----5---|     b|----| 
g|-----3h5------3h5-5~-5~------3h5-5-5----5---|     g|----| 
d|-----------------------------------5----5---|x2   d|-5~-|  
a|-----------------------------------3----3---|     a|----| 
e|--------------------------------------3---3-|     e|----|


[INTERLUDE]

N.C.
I'm on the road, I'm on the road, I'm on the road 


[PRE CHORUS]

              Cm                          Gm   G  Bb       
I've killed a god, the spirit is into the wind
Gm  G   Bb Cm    C      Cm   C
    All my love, all my love
Bb                 F
Is where I end and where I begin


[CHORUS]

   Gm                                C  G C G
e|--------------------------------------------|   
b|-3p0------3p0------------3p0-------5----5---|
g|-----3h5------3h5-5~-5~------3h5-5-5----5---|
d|-----------------------------------5----5---|x2
a|-----------------------------------3--5-3-5-|
e|--------------------------------------3---3-|

   Gm                                C  G C G
e|--------------------------------------------|   
b|-3p0------3p0------------3p0-------5----5---|
g|-----3h5------3h5-5~-5~------3h5-5-5----5---|
d|-----------------------------------5----5---|x4
a|-----------------------------------3--5-3-5-|
e|--------------------------------------3---3-|
             I'm on the road


[OUTRO]
  
           G 
I'm on the road         
N.C.
I'm on the road and you gotta take it down to the wire
N.C.
There's no mercy in this eternal fire
N.C.
I'm on the road I'm on the road I'm on the road I'm on the road I'm on the road

            
            
Suggest correction
Creating personal tab
Creating personal tab
You can edit any tab online and save it as your Personal.

You can edit, replace or remove any tab part or add personal notes – all changes will be seen only by you.

Personal tabs can be accessed anytime from any device, even offline.
Learn more »
Give kudos to tab author, rate the tab!
1 2 3 4 5
comments
print report bad tab
guest
You may want to rate the tab now too:
select rating
Wanna post a correction for this tab? Suggest correction