Oops, an error
Loading. Please wait.

Puff The Magic Dragon Bass

3,952 views 1 this week
no commentswrite comment
1 2 3 4 5
2 more votes to show rating
add to favorites
launch autoscroll
font size
0
reset
guitar tuner
×
Best way to learn
"Puff The Magic Dragon"
Autoscroll
slow
fast
+/-
esc
set tempo
stop
Author
INTRO *=play 8X %=play 16X &=play 12X  
G----------------------------------------------------+
D-5-----5--4-----4--2-----2--0--------------------5&-+
A----5--------5--------2--------3*----------3%-------+
E-------------------------------------3*-------------+

VERSE *=play 8X &=play 12X
G---------------------------------------------->
D---------------------------------------------->
A-------------------5*----3*----------------5*->
E-3*----2*----0*----------------3*----5*------->

VERSE
---------------------------------------------------+
---------------------------------------------------+
-------------------5*----3*----------------5-5-----+
-3*----2*----0*----------------3*----5*---------3&-+

CHORUS *=play 8X &=play 12X
G-------------------------------------------------------------------+
D-------------------------------------------------------------------+
A-------2*----3*----------2*----3*----------2*----3*--------------3-+
E-3*----------------3&----------------3&----------------3&----5*----+

END-CHORUS
G-----------+
D-----------+
A------33---+
E-3-3-----3-+

VERSE2 *=play 8X &=play 12X
G---------------------------------------------->
D-------------2*------------------------------->
A-------------------5*----3*----------------5*->
E-3*----2*----------------------3*----5*------->

VERSE2
--------------------------------------------------------------------+
-------------2*-----------------------------------------------------+
-------------------5*----3*----------------5-5-------33--------44---+
-3*----2*----------------------3*----5*---------3-3-----3-4-4-----4-+

VERSE3 *=play 8X &=play 12X
G---------------------------------------------->
D-------------3*------------------------------->
A-------------------6*----4*----------------6*->
E-4*----3*----------------------4*----6*------->

VERSE3                                !Let ring!
-------------------------------------|-------+
-------------3*----------------------V-------+
-------------------6*----4*----------4-------+
-4*----3*----------------------4*---------4&-+

CHORUS2 *=play 8X &=play 12X                                      !Let ring!
G-----------------------------------------------------------------|-+
D-----------------------------------------------------------------V-+
A-------3*----4*----------3*----4*----------3*----4*--------------4-+
E-4*----------------4&----------------4&----------------4&----6&----+

OUTRO
G--------------------------------+
D--------------------------------+
A-4---1--3---1--3--4--3--1--3----+
E------------------------------4-+
Suggest correction
Give kudos to tab author, rate the tab!
1 2 3 4 5
comments
print report bad tab
guest
You may want to rate the tab now too:
select rating
Wanna post a correction for this tab? Suggest correction