Oops, an error
Loading. Please wait.

Somewhere Over The Rainbow tab

version 2
version 2

Whole song

Interactive

11,260 views 9 this week
1 commentread comment
1 2 3 4 5
x 4
add to favorites
×
Save as Personal and add changes to this tab that will be seen only by you. Learn more ›
×
You can save this tab as Personal to edit and correct it or add notes. All changes will be seen only by you. Learn more »
launch autoscroll
font size
0
reset
how to read this tab
guitar tuner
edit
Autoscroll
slow
fast
+/-
esc
set tempo
stop
Author
Difficulty
song - somwhere over the rainbow
band - me first and the gimme gimmes
tabed by - Greenparty

this is a song that i've listened to many, many times and have always wanted to play but 
wernt many tabs out there for it that where correct so i spent a lot of time teaching 
it, and thought i would share it to all you good people out there who appreciate awsome punk, ska covers.


starts off with letting the strings
ring out to get amp feedback

(Verse 1 repeat twice)
--------------------------------------------------------------------|
--------------------------------------------------------------------|
--------------------------------4444444444--5555555555--------------|
---(pick slide)-----5555555555--4444444444--5555555555--5555555555--|
--------------------5555555555--2222222222--3333333333--5555555555--|
--------------------3333333333--------------------------3333333333--|


--------------------------------------------------------------------|
--------------------------------------------------------------------|
----5555555555---------99999---------77777--------------------------|
----5555555555--55555--99999--77777--77777--55555----(pick slide)---|
----3333333333--55555--77777--77777--55555--55555-------------------|
----------------33333---------55555---------33333-------------------|


(verse 2)

-------------------------------------------------------------|
-------------------------------------------------------------|
----------------------5-55555555555555-----------------------|
----5-55555555555555--5-55555555555555--5-555555555555555----|
----5-55555555555555--3-33333333333333--5-555555555555555----|
----3-33333333333333--------------------3-333333333333333----|
      **************    **************    ***************

-------------------------------------------------------------|
-------------------------------------------------------------|
----7777777777---------------------7-777777777777777---------|
----7777777777--5-555555555555555--5-555555555555555---------|
----5555555555--5-555555555555555----------------------------|
----------------3-333333333333333----------------------------|
                  ***************    ***************

-------------------------------------------------------------|
-------------------------------------------------------------|
----5-555555555555555--7777777777----------------------------|
----5-555555555555555--7777777777--------(pick slide)--------|
----3-333333333333333--5555555555----------------------------|
-------------------------------------------------------------|
      ***************

(Verse 3)
----------------------------------------------------|
----------------------------------------------------|
----------------4444444444--5555555555--------------|
----5555555555--4444444444--5555555555--5555555555--|
----5555555555--2222222222--3333333333--5555555555--|
----3333333333--------------------------3333333333--|


--------------------------------------------------------------------|
--------------------------------------------------------------------|
----5555555555---------99999---------77777--------------------------|
----5555555555--55555--99999--77777--77777--55555----(pick slide)---|
----3333333333--55555--77777--77777--55555--55555-------------------|
----------------33333---------55555---------33333-------------------|

(solo)
------------------------------------------------------------------------|
------------------------------------7/8-7----7/8-10-12-12-10h12p10-8-8--|
-------7---7---7---------7----7----7------7-----------------------------|
----/9---9---9---9b--/10---10---10--------------------------------------|
------------------------------------------------------------------------|
------------------------------------------------------------------------|

(outrow)
-----------------------------------------12---|
-----------------------------------------12---|
----------------7777777777--5--4--2--4---12---|*let it ring*
----5555555555--7777777777--5--4--2--4---12---|
----5555555555--5555555555--3--2--0--2---10---|
----3333333333--------------------------------|

p= pull off
h= hammer on
/= slide up
*=palm muteing

Well that’s pretty much it, this tab is 99% right, I’m still not sure about 
outrow  but the solo and the verse parts  are perfect.  If you have any suggestions just 
a comment, enjoy.
Suggest correction
Creating personal tab
Creating personal tab
You can edit any tab online and save it as your Personal.

You can edit, replace or remove any tab part or add personal notes – all changes will be seen only by you.

Personal tabs can be accessed anytime from any device, even offline.
Learn more »
comments
print report bad tab
1 comment total.
0 reply
patmann3 30 Apr 09, 2007 05:55 AM

not sure bout the end of the solo but gd none the less

guest
You may want to rate the tab now too:
select rating
Wanna post a correction for this tab? Suggest correction