Oops, an error
Loading. Please wait.

The Only Boy Awake Live chords

version 2
version 2

Whole song

  • This version shows how to play the fingerstyle ver... Show more
  • Capo 3, DADGAD. As played by Meadows live at Hambu... Show more
by Meadows
2,887 views 48 this week
1 commentread comment
1 2 3 4 5
x 3
add to favorites
×
Save as Personal and add changes to this tab that will be seen only by you. Learn more ›
×
You can save this tab as Personal to edit and correct it or add notes. All changes will be seen only by you. Learn more »
launch autoscroll
font size
0
reset
transpose
0
reset
display chords
guitar tuner
edit
Autoscroll
slow
fast
+/-
esc
set tempo
stop
Strumming
There is no strumming pattern for this song yet. and get +5 IQ
Capo 3rd fret
Tuning: DADGAD

[Chords]
  Dm    C     F   Am    A#
d|-0----0-----0----0----0----|
A|-0----0-----0----0----0----|
G|-7----6----11----2----4----|
D|-0----0-----0----0----0----|
A|-x----x-----x----x----x----|
D|-9----7----12----4----5----|

[Intro]
Finger picking is something like this through out the song:
d|--------------------------|--------------------------|-------------------------|
B|--------------------------|--------------------------|-------------------------|
G|--7--------7------7----6--|-11--------11------11--2--|--4-------4-------4---6--|
D|-----0--------0-----------|-----0---------0----------|-----0-------0-----------|
A|--------------------------|--------------------------|-------------------------|
D|--9-----9---------9----7--|-12-----12---------12--4--|--5-----5---------5---7--|

                                                       *not sure I wrote this right, just feel it
d|--------------------------|--------------------------|----------------0---------|
B|--------------------------|--------------------------|------------0------0------|
G|--7--------7------7----6--|-11--------11------11--2--|--4------4----4---------6-|
D|-----0--------0-----------|-----0---------0----------|-----0--------------------|
A|--------------------------|--------------------------|--------------------------|
D|--9-----9---------9----7--|-12-----12---------12--4--|--5-----5---------------7-|


d|-----------9-----9----7--|--------------------------|----------5----5-------|
B|-------------------------|--------------------------|-----------------------|
G|--7-----------7----------|-11--------11------11--2--|--4----------4------6--|
D|-----0-------------------|-----0---------0----------|-----0-----------------|
A|-------------------------|--------------------------|-----------------------|
D|--9-----9-------------7--|-12-----12---------12--4--|--5-----5-----------7--|

[Verse]
Dm
 Through your window 
C F
  By the water 
Am A#           C
   Can you see me 
Dm               
When the wind blows 
C F
  through empty quarters 
Am A#                C
   No, You will never know 
       A#             C       Dm
cause you’d already know by now
C F   Am A#  C
        Ooh ooh
Dm   C F   Am A#   C
            ooh

Dm
When your love grew
C F
    I was there too
Am A#                    C
   I should have told you  
Dm          C F 
I’m the only boy awake now
Am A#            C
   Gazing at the stars  
   A#             C      Dm
I dive into the blue and You.  
C F   Am A#  C
         you ooh
Dm   C F   Am A#   C
            mmm
Dm   C A#   C
Dm   C A#   C
Dm   C A#   C

[Bridge]
A#                      Am        C     A#
I never had to walk like this before 
                Dm     C
I never had to hide away 
A#                               Dm        C     A#
I don’t really want to talk like this no more
A#                            Dm     C       A#
I will walk until the night turns to day 
and you
Dm   C    F    Am   A#

[Outro] 
Dm
 Through your window 

C F
 Through your window  
Am A#           C
   Can you see me  
Dm               
When the wind blows  
C F
  through empty quarters  
Am A#                C
   No, You will never know  
       A#             C
cause you’d already know by now 
       A#             C        F
cause you’d already know by now 
Suggest correction
Creating personal tab
Creating personal tab
You can edit any tab online and save it as your Personal.

You can edit, replace or remove any tab part or add personal notes – all changes will be seen only by you.

Personal tabs can be accessed anytime from any device, even offline.
Learn more »
Give kudos to tab author, rate the tab!
1 2 3 4 5
comments
print report bad tab
1 comment total.
0 reply
megaboy981 10 Apr 23, 2017 07:16 AM

exelente 10/10

guest
You may want to rate the tab now too:
select rating
Wanna post a correction for this tab? Suggest correction