Oops, an error
Loading. Please wait.

All Revved Up With No Place To Go Tab

version 1
version 1

Intro

Whole song

Interactive

2,005 views 1 this week
2 commentsread comments
1 2 3 4 5
1 last vote to show rating
add to favorites
launch autoscroll
font size
0
reset
how to read this tab
guitar tuner
×
Best way to learn
"All Revved Up With No Place To Go"
Autoscroll
slow
fast
+/-
esc
set tempo
stop
Meatloaf - All Revved Up With No Place To Go
----------------------------------------------------------------
This is kinda simple but it's a start till I find out the time to tab the rest of this
song, this is the catchy riff it's quite easy, so enjoy.

Intro (Sax Arranged For Guitar) :

--14--15---14--16---15----14---15--14-------------------|
--------------------------------------------15hp16--15--|
--------------------------------------------------------|
--------------------------------------------------------|
--------------------------------------------------------|
Keep It Rockin'
metia_kickass@hotmail.com
Suggest correction
Give kudos to tab author, rate the tab!
1 2 3 4 5
comments
print report bad tab
2 comments total.
+1 reply
GN'R Dude 127 Mar 16, 2006 04:50 PM

I think its in the wrong key.

+1 reply
ghavelus 134 Sep 03, 2008 06:01 PM

totally and has wrong notes it's a really bad tab the sax shoulbe something like this
e--------------------------------
b--14-15-14-17-15-14-15-14-------
g--------------------------14-----
d------------------------------16---
a----------------------------------
E---------------------------------

guest
You may want to rate the tab now too:
select rating
Wanna post a correction for this tab? Suggest correction