Oops, an error
Loading. Please wait.

You Took The Words Right Out Of My Mouth Bass Tab

version 1
version 1

Whole song

Interactive

1,684 views 9 this week
no commentswrite comment
1 2 3 4 5
please rate
add to favorites
launch autoscroll
font size
0
reset
guitar tuner
Autoscroll
slow
fast
+/-
esc
set tempo
stop
Help us to improve Ultimate-Guitar.com Take our survey!
×
Author
-----------------------------------------------------------------------------
             YOU TOOK THE WORDS RIGHT OUT OF MY MOUTH - Meatloaf
-----------------------------------------------------------------------------

Tabbed by: Matt Broback
E-mail: 37hambone@gmail.com

Tuning: E A D G

INTRO  0:49
|--------|--------|--------|--------|--------|--------|--------|--------|
|------2-|0--00---|0--00--0|2--22--2|------2-|0--00---|0--00--0|222222-2|
|0--00--0|-------0|--------|------2-|0--00--0|-------0|--------|------2-|
|--------|--------|--------|--------|--------|--------|--------|--------|

VERSE 1
|------.-|.-----.-|------.-|.-----.-|------.-|.-------|--------|--------|
|------2-|0-----2-|.-----2-|0-----2-|.-----2-|0-------|--------|----0-2-|
|0-------|--------|0-------|--------|0-------|--------|.-------|2-4-----|
|--------|--------|--------|--------|--------|--------|3-------|--------|

|-------2|---2----|--------|--------|--------|--------|--------|--------|
|--------|--2---2\|------2-|0--00-2-|------2-|0--00-2-|------2-|0--00-2-|
|0--000--|00--00--|0--00---|--------|0--00---|--------|0--00---|--------|
|--------|--------|--------|--------|--------|--------|--------|--------|

|--------|--------|--------|--------|--------|--------|--------|--------|
|--------|----02--|----02--|----0-2\|--------|--------|--------|--------|
|-------0|2-4----2|-24----2|-24-----|0--00---|00-000-0|2--2----|----0--0|
|3--33---|--------|--------|--------|-------0|--------|----2--2|3--3----|

|--------|--------|--------|--------|--------|--------|--------|--------|
|--------|00------|--------|--------|--------|--22----|--------|--------|
|2--22--2|---0---0|2--2----|----0--0|--------|24------|--------|--------|
|--------|--------|----2--2|3--3----|2--22-2-|--------|--------|--------|

CHORUS 1
|7-------|--------|--------|-------14--|--------|--------|--------|--------|
|--------|7-------|5-------|7----14--14|16------|14------|----0-2-|--------|
|--------|--------|--------|-----------|--------|--------|2-4-----|----0-4-|
|--------|--------|--------|-----------|--------|--------|--------|2-4-----|

|--------|--------|--------|-------2|--------|-----2---|--------|--------|
|0--00---|--------|0--00--0|------2-|0------2|----2--2-|0--00--0|--------|
|--------|--------|--------|0--00---|--------|-0----0-0|--------|0--00--0|
|--------|2--00---|--------|--------|-3--33--|3--------|--------|--------|

|--------|--------|--------|--------|
|----0-2-|--------|0--00---|--------|
|2-4-----|----0-4-|--------|--------|
|--------|2-4-----|--------|2--00---|

VERSE 2
|--------|--------|--------|--------|--------|--------|--------|---------|
|------2-|0--00---|------2-|0--00---|------2-|0--00--0|--------|----02---|
|0-------|--------|0-------|--------|0-------|--------|--------|2-4----2-|
|--------|--------|--------|--------|--------|--------|3--333-3|---------|

|--------|-------|--------|--------|--------|--------|--------|--------|
|---02---|---0-2-|--------|-------2|------2-|0-------|------2-|0-------|
|24----2-|24-----|0--00---|00-000--|0-------|--------|0-------|--------|
|--------|-------|-------0|--------|--------|--------|--------|--------|

|--------|--------|--------|--------|--------|--------|
|------2-|0-------|---55---|----0-2-|--------|--------|
|0-------|------0-|-------0|2-4-----|0--00---|0--00---|
|--------|--------|3-------|--------|-------0|--------|

CHORUS 2
|--------|----2---|--------|----2---|--------|--------|--------|--------|
|0-------|---2--2-|--------|---2--2-|0-------|--------|----0-2-|--------|
|--------|0-------|--------|0------2|--------|0-------|2-4-----|----0-4-|
|--------|--------|3-------|--------|--------|--------|--------|2-4-----|

|--------|--------|--------|--------|--------|----2---|--------|--------|
|0--00---|-------2|0--00--0|--------|----5-5-|---2--21|0--00--2|--------|
|--------|--------|--------|0--00--0|---5----|0-------|------0-|0--00--0|
|------5/|2--00---|--------|--------|3------3|--------|--------|--------|

|--------|--------|--------|--------|
|----0-2-|--------|0--00---|--------|
|2-4-----|----0-4-|--------|--------|
|--------|2-4-----|--------|2--00---|

OUTRO
|----------|-------4|2-------|--------6|--------|---------6|--------|--------6|
|-----03/42|0----24-|------24|0-----2/-|7-----24|0----23/4-|7-----24|0-----/6-|
|0---------|--------|--------|---------|--------|----------|--------|---------|
|----------|--------|--------|---------|--------|----------|--------|---------|

|----------|--------|--------|--------|----2---|--------|--------|--------|--------|
|7--2--2/42|0--00-02|------22|0--00---|------22|00-00---|------22|00000000|0-------|
|----0-----|-----4--|0--000--|-----42-|0--0-0--|-----42-|000000--|--------|--------|
|----------|--------|--------|-------3|--------|-------3|--------|--------|--------|

        x14
|----------|
|:--------:|
|:--------:|
|----------|
Suggest correction
What's this?
You can suggest a correction to this tab. Community and Mods will review your correction and vote to approve or reject it.
comments
We did not receive enough feedback on this tab! Please rate:
print report bad tab
1 2 3 4 5
guest
You may want to rate the tab now too:
select rating
Please do not post tabs as comments. Select "correction" instead!