Oops, an error
Loading. Please wait.

Him tab

631 views 9 this week
1 commentread comment
1 2 3 4 5
1 last vote to show rating
add to favorites
×
Save as Personal and add changes to this tab that will be seen only by you. Learn more ›
×
You can save this tab as Personal to edit and correct it or add notes. All changes will be seen only by you. Learn more »
launch autoscroll
font size
0
reset
how to read this tab
guitar tuner
edit
Autoscroll
slow
fast
+/-
esc
set tempo
stop
Author
Difficulty
intermediate
[Intro]

e|---------|--5-------|--10----------|--------|
B|-5-------|--7b9--5--|--12b14--5---|--5------|
G|-7b9--5--|----------|-------------|--7b9--5-|  x2 
D|---------|----------|-------------|---------|
A|---------|----------|-------------|---------|
E|---------|----------|-------------|---------|


[Verse 1]

e|-5-|---------|-1-1-1--|   
B|-5-|---------|-1-1-1--|   
G|-6-|--5-5-5--|-2-2-2--| x5
D|-7-|--5-5-5--|-3-3-3--|   
A|-7-|--3-3-5--|-3-3-3--|   
E|-5-|---------|-1-1-1--| 

e|-5-|---------|-1-1-1--|---------|-----|
B|-5-|---------|-1-1-1--|---------|-----|
G|-6-|--5-5-5--|-2-2-2--|--7-7-7--|-----|
D|-7-|--5-5-5--|-3-3-3--|--7-7-7--|-7-7-|
A|-7-|--3-3-5--|-3-3-3--|--5-5-5--|-7-7-|
E|-5-|---------|-1-1-1--|-- ------|-5-5-|


[Instrumental]

e|---------|--5-------|-10-----------|---------|
B|-5-------|--7b9--5--|--12b14--5----|--5------|
G|-7b9--5-|-----------|--------------|--7b9--5-|
D|---------|----------|--------------|---------|
A|---------|----------|--------------|---------|
E|---------|----------|--------------|---------|


[Verse 2]

e|-5-|---------|-1-1-1--|   
B|-5-|---------|-1-1-1--|   
G|-6-|--5-5-5--|-2-2-2--| x6
D|-7-|--5-5-5--|-3-3-3--|   
A|-7-|--3-3-5--|-3-3-3--|   
E|-5-|---------|-1-1-1--| 

e|-5-|---------|-1-1-1--|---------|-------|--------|-1-1-1-|-------|-------|
B|-5-|---------|-1-1-1--|---------|-------|--------|-1-1-1-|-------|-------|
G|-6-|--5-5-5--|-2-2-2--|--7-7-7--|-------|--5-5-5-|-2-2-2-|-7-7-7-|-------|
D|-7-|--5-5-5--|-3-3-3--|--7-7-7--|-7-7-7-|--5-5-5-|-3-3-3-|-7-7-7-|-7-7-7-|
A|-7-|--3-3-5--|-3-3-3--|--5-5-5--|-7-7-7-|--3-5-3-|-3-3-3-|-5-5-5-|-7-7-7-|
E|-5-|---------|-1-1-1--|-- ------|-5-5-5-|--------|-1-1-1-|-------|-5-5-5-|


[Bridge]
                     C   E    A 
e|-----------------|---|---|--5---|
B|-----------------|-1-|---|--5---|
G|-----------------|---|-1-|--6---|  x2 
D|-----------------|-2-|-2-|--7---|
A|-7-5-4-5-4-3-----|-3-|-2-|--7---|
E|-------------3-4-|---|---|--5---|


[Solo]

e|---------------------------------------------------------------------------------|
B|---------------------------------------------------------------------------------|
G|-6h7p-6h7p-6h7p-6h7p-6h7p-6h7p-6h7p-6h7p/4h5p-4h5p-4h5p-4h5p-4h5p-4h5p-4h5p-4h5p-|
D|---------------------------------------------------------------------------------|
A|---------------------------------------------------------------------------------|
E|---------------------------------------------------------------------------------|

e|---------------------------------------------------------------------------------|
B|---------------------------------------------------------------------------------|
G|-3h4p-3h4p-3h4p-3h4p-3h4p-3h4p-3h4p-3h4p/2h3p-2h3p-2h3p-2h3p-2h3p-2h3p-2h3p-2h3p-|
D|---------------------------------------------------------------------------------|
A|---------------------------------------------------------------------------------|
E|---------------------------------------------------------------------------------|

e|---------------------------------------------------------------------------------|
B|---------------------------------------------------------------------------------|
G|-6h7p6h7p6h7p6h7p6h7p6h7p6h7p6h7p/4h5p4h5p4h5p4h5p4h5p4h5p4h5p4h5p---------------|
D|---------------------------------------------------------------------------------|
A|---------------------------------------------------------------------------------|
E|---------------------------------------------------------------------------------|

e|---------------------------------------------------------------------------------|
B|---------------------------------------------------------------------------------|
G|-3h4p3h4p3h4p3h4p3h4p3h4p3h4p3h4p/2h3p-2h3p-2h3p-2h3p-2h3p-2h3p-2h3p-2h3p--------|
D|---------------------------------------------------------------------------------|
A|---------------------------------------------------------------------------------|
E|---------------------------------------------------------------------------------|


[Outro]

e|---------|-1-1-1--|---------|-------|
B|---------|-1-1-1--|---------|-------|
G|--5-5-5--|-2-2-2--|--7-7-7--|-------|  x2 
D|--5-5-5--|-3-3-3--|--7-7-7--|-7-7-7-| 
A|--3-3-5--|-3-3-3--|--5-5-5--|-7-7-7-|
E|---------|-1-1-1--|-- ------|-5-5-7-|


e|----------------------------------------------------------------------|
B|----------------------------------------------------------------------|
G|-5/10-10-10-/5-5-5/-11-11-11/5-5-5/-10-10-10/5-5-5/-11-11-11/-5-5-5---|
D|-5/10-10-10-/5-5-5/-11-11-11/5-5-5/-10-10-10/5-5-5/-11-11-11/-5-5-5---|
A|-3/-8--8--8-/3-3-3/--9--9--9/3-3-3/--8--8--8/3-3-3/--9--9--9/-3-3-3---|
E|----------------------------------------------------------------------|

************************************
| h   Hammer-on
| p   Pull-off
| b   Bend
| /   Slide uo
************************************

            
            
Suggest correction
Creating personal tab
Creating personal tab
You can edit any tab online and save it as your Personal.

You can edit, replace or remove any tab part or add personal notes – all changes will be seen only by you.

Personal tabs can be accessed anytime from any device, even offline.
Learn more »
Give kudos to tab author, rate the tab!
1 2 3 4 5
comments
print report bad tab
1 comment total.
0 reply
morgy1301 205 Apr 24, 2016 02:19 PM

Awesome tab! Just some recommendations:
For the bridge instead of:
A|-7-5-4-5-4-3-----|
E|-------------3-4-|
I hear:
A|-7-5-4-5-4-------|
E|-----------5-3-5-|
And for the solo I think its down a string
G|-6h7p-6h7p-6h7p-6h7p-6h7p-6h7p-6h7p-6h7p/4h5p-4h5p-4h5p-4h5p-4h5p-4h5p-4h5p-4h5p-|
G|-2h3p-2h3p-2h3p-2h3p-2h3p-2h3p-2h3p-2h3p/1h2p-1h2p-1h2p-1h2p-1h2p-1h2p-1h2p-1h2p-|
Hope this helps!

guest
You may want to rate the tab now too:
select rating
Wanna post a correction for this tab? Suggest correction