Oops, an error
Loading. Please wait.

Maquillaje Bass

by Mecano
253 views 3 this week
no commentswrite comment
1 2 3 4 5
3 more votes to show rating
add to favorites
×
Save as Personal and add changes to this tab that will be seen only by you. Learn more ›
×
You can save this tab as Personal to edit and correct it or add notes. All changes will be seen only by you. Learn more »
save as personal
new!
launch autoscroll
font size
0
reset
guitar tuner
Autoscroll
slow
fast
+/-
esc
set tempo
stop
Hola, Pues aqui les dejo la tab de maquillaje de mecano, si
les gusta la rola pues mandenme un correo a leonarpanda@
y si tienes alguna peticion pues mandenme un correo pidiendola y
y se las envio y la publico aqui ok

Grupo: Mecano
Artista-C: Nacho
Cancion: Maquillaje
Album: Mecano
Año 1982

Bajo: con dedos
Tipo-Bajo: String
Equalizacion: (Funk)
"por lo normal todo vienen en Ingles
Y Numeracion del "0" a "10"
(Bass a 8.5)-(Midle a 10)-(Treble a 7) (Contour-shape a 7.5)
(50Hz a todo)-(100Hz a todo)-(225Hz a 3/4)-(625Hz a 5/8)
(1.6kHz a 7/8)-(4kHz y 8kHz a abajito de la maximo)-(16kHz a 15/16)


Verso
G-------4---     G-----
D---0-4---4-     D-0-2-
A-2--------- X 3 A-----
E-----------     E-----

G-------5---     G-----
D---2-5---5-     D-0---
A-3--------- X 3 A---2-
E-----------     E-----

G-------4---     G-----
D---0-4---4-     D-0-2-
A-2--------- X 3 A-----
E-----------     E-----

G-------5---
D---2-5---5-
A-3--------- X 3
E-----------

G-------4-----|---------4------
D-0---4---4---|-------4---4----
A---2-------2-|---0-2--------2- X 2
E-------------|-2--------------

Pre coro
G---------------------
D-------9-7---7-5-4-2-
A---------------------
E-2/(5)---------------

Coro
G-----------------------------------------
D-----------2--2----------------2--2------
A-5--5-2--2------3--3-5--5-2--2------3--3-
E-----------------------------------------

G-----------------------------------------
D-----------2--2----------------2--2------
A-5--5-2--2------3--3-5--5-2--2------3--3-
E-----------------------------------------

Intermedio
G---------------------------------------
D-5--------------------10---------------
A----3----2-3----2-3-----------2-3---2--
E-------3---------------------3---------

Verso 2
G-------4---     G-----
D---0-4---4-     D-0-2-
A-2--------- X 3 A-----
E-----------     E-----

G-------5---     G-----
D---2-5---5-     D-0---
A-3--------- X 3 A---2-
E-----------     E-----

G-------4---     G-----
D---0-4---4-     D-0-2-
A-2--------- X 3 A-----
E-----------     E-----

G-------5---
D---2-5---5-
A-3--------- X 3
E-----------

G-------4-----|---------4------
D-0---4---4---|-------4---4----
A---2-------2-|---0-2--------2- X 2
E-------------|-2--------------

Pre coro 2
G---------------------
D-------9-7---7-5-4-2-
A---------------------
E-2/(5)---------------

Coros finales
aqui solo se barea el ritmo
G-----------------------------------------
D-----------2--2----------------2--2------
A-5--5-2--2------3--3-5--5-2--2------3--3- Se repite asta el final ok
E-----------------------------------------

Peticiones a leonarpanda@
Suggest correction
Give kudos to tab author, rate the tab!
1 2 3 4 5
comments
print report bad tab
guest
Wanna post a correction for this tab? Suggest correction