Oops, an error
Loading. Please wait.

No Es Verdad Chords

53 views 3 this week
no commentswrite comment
1 2 3 4 5
3 more votes to show rating
add to favorites
launch autoscroll
font size
0
reset
transpose
0
reset
simplify chords
display chords
guitar tuner
×
Best way to learn
"No Es Verdad"
Autoscroll
slow
fast
+/-
esc
set tempo
stop
Hola! Aca les dejo una pieza de un artista de tiquicia que he
querido sacar desde hace algun tiempo la saque a puro oido y
creo que la musicalizacion esta correcta!
la escala es A mayor Pura vida!
F#m:
e:---|---|---|---|     *un consejo! si la van a tocar en acustica solamente
b:---|---|---|---|      hagan el acorde normal para que les suene bien,
g:---|-x-|---|---|      y si van a tocar con un grupo hagan este acorde.*
d:---|---|---|-x-|
a:---|---|---|-x-|
e:---|---|---|---|
   1
Dadd9:
e:---|---|---|---|
b:---|---|-x-|---|
g:---|-x-|---|---|
d:---|---|---|---|
a:---|---|---|---|
e:---|---|---|---|
   1
Daad9/B:
e:---|---|---|---|
b:---|---|-x-|---|
g:---|-x-|---|---|
d:---|---|---|---|
a:---|-X-|---|---|
e:---|---|---|---|

Aadd9:
e:---|---|---|---|
b:---|---|---|---|
g:---|-x-|---|---|
d:---|-x-|---|---|
a:---|---|---|---|
e:---|---|---|---|


F#m
después de un momento
              Bm     Daad9
quedé sorprendido
                              F#m
como alguien cambia de personalidad
F#m                               Bm     Dadd9
cuantas emociones tu y yo hemos vivido
                                  F#m
cuando era mentira, cuando era verdad
F#m                                Bm     Dadd9
de pronto me encuentro arañando paredes,
                             F#m
buscando repuestas en todo lugar
F#m                                  Bm    Dadd9
durmiendo a la par de tus viejos demonios
                              E
soñando con vos sin poder despertar

CORO
          Aadd9           Dadd9/B
y no es verdad, que me adorabas
          Bm               Aadd9
y no es verdad, que dabas más
          Aadd9              Bm
y no es verdad, que a nadie mas ibas a amar
         Dadd9   E           F#m - E
y no es verdad, nena no es verdad


F#m (silencio...............)       Bm     Daad9
después de un momento de haberme ofendido
                                  F#m
confieso que cuando te vas me da igual
F#m                           Bm     Dadd9
que aveces prefiero la cama vacía
                              F#m
que no importa ya si vas a regresar


F#m                                Bm     Dadd9
y siempre me encuentro arañando paredes
                              F#m
buscando respuestas en todo lugar
F#m                                Bm     Dadd9
durmiendo a la par de tus viejos demonios
                          E
soñando con sin poder despertar


CORO
          Aadd9           Dadd9/B
y no es verdad, que me adorabas
          Bm               Aadd9
y no es verdad, que dabas más
          Aadd9              Bm
y no es verdad, que a nadie mas ibas a amar
         Dadd9   E           F#m - E
y no es verdad, nena no es verdad

SOLO: F#m Bm Dadd9 F#m F#m Bm Dadd9 F#m E

e:--------------------------------------------------5--7b(8)7-5--5--
b:----------------------------------------------5-7-------------7-7-
g:-------2h4-4b(5)-2--2h4-(*4b)(5)-4p2--2-----6---------------------
d:---2h4-------------4-----------------4----------------------------
a:------------------------------------------------------------------
e:------------------------------------------------------------------

e:---------------------5-------------------------------------------
b:--5v-5-5v-5-5-5--5h7--7--7--------------5--5h7-5h7-5v------------
g:----------------------------2h4--2h4-4s6------6------------------
d:-------------------------2h4-------------------------------------
a:-----------------------------------------------------------------
e:-----------------------------------------------------------------

CORO x3
          Aadd9           Dadd9/B
y no es verdad, que me adorabas
          Bm               Aadd9
y no es verdad, que dabas más
          Aadd9              Bm
y no es verdad, que a nadie mas ibas a amar
         Dadd9   E           F#m - E
y no es verdad, nena no es verdad

ESPERO LES HAYA SERIVO...
cortesia by pincel xD
Suggest correction
Give kudos to tab author, rate the tab!
1 2 3 4 5
comments
print report bad tab
guest
You may want to rate the tab now too:
select rating
Wanna post a correction for this tab? Suggest correction