Oops, an error
Loading. Please wait.

New Planet Bass Tab

2,374 views 1 this week
1 commentread comment
1 2 3 4 5
2 more votes to show rating
add to favorites
launch autoscroll
font size
0
reset
guitar tuner
Autoscroll
slow
fast
+/-
esc
set tempo
stop
Help us to improve Ultimate-Guitar.com Take our survey!
×
Author
Song: New Planet
Artist: Medeski, Martin and Wood
Album: End of the World Party (Just in Case)

intro when they play this live they do this...
do how ever many times you want
G-------17--17--17-----|
D----------------------|
A-------16--16--17-----|
E----17----------------|

and heres some fill ideas if you dont fee like having the end of the intro sustain

G--------17----------------       --------------17---------------------|
D------------16----16------       -----------16----16------------------|
A----17---------17---------  or   ----17-17----------------------------|
E--------------------------       -------------------------------------|


main riff
G---------------------14--12--------------------------------|
D-----------------14-----------------5----------------------|
A----0--h5\12-12--------------5--7--------------------------|
E-----------------------------------------------------------|

chromatic walking line
G----------------------------        ---------------------------------|
D----------------------------    or  ---------------------------------|
A-----------------8-9-10-----        ---------------------------------|
E----4--3--2--1--------------        ----4--3--2--1----1-2-3----------|

then there is a jam part which is in the key of F
i would stick the the major and blues scales and some
pentatonic for a little flare.
then there is a structured part of the jam which goes like this

G-------------------------------------------|
D---------3---------------------------------|
A------------3--2--1----3--2--1------1------|
E--1-1----------------------------4---------|


well have fun..

http://mmw.net/
Suggest correction
Give kudos to tab author, rate the tab!
1 2 3 4 5
comments
print report bad tab
1 comment total.
0 reply
lilcorpsegrindr 10 Apr 17, 2009 02:01 PM

from what i see and hear it should be something like this

G------------------------------------------------------------|
D-----------------12-14-17--16--------5----------------------|
A----0--h5\12-12---------------5--7--------------------------|
E------------------------------------------------------------|

guest
You may want to rate the tab now too:
select rating
Wanna post a correction for this tab? Suggest correction