Oops, an error
Loading. Please wait.

Undone Bass Tab

472 views 1 this week
1 commentread comment
1 2 3 4 5
2 more votes to show rating
add to favorites
launch autoscroll
font size
0
reset
guitar tuner
Autoscroll
slow
fast
+/-
esc
set tempo
stop
Help us to improve Ultimate-Guitar.com Take our survey!
×
Author
Difficulty
intermediate
A more progressive song from the Experimental Jazz group Medeski Martin & Wood.
From Radiolarians III  -  2009

Effects: I suggest light distortion is possible.

Main Verse
G--------------------------------------------------------------------|
D----------6-------6--------------------4----4-----------------------|
A-------7----7-------9--7--5---------5----5----7--5--4--------10-9---|
E----------------------------6-------------------------5---5---------|

Bridge
----------------------------------------------------------------------------------|
----------------------------------------------------------------------------------|
----------------------------------------------------------------------------------|
--55555555-00000000-22222222-44444444-00000000-555555555-99999999-00000000--------|

Verse
---------------------------------------------------------------------|
-----------6-6---------------------------6-6-------------------------|
---4--7--4------44--7--4--------4--7--4-----44--7--4-----------------|
---------------------------7-77------------------------5-5-5---3-3-3-|

Solo (basic bass notes) - add your own fills
-------------------------------------------|
-------------------------------------------|
----7--7--7--77----------------------------|
---------------7-75-53-3-------------------|

Post-Solo
-----------------------------------------------------|
----------------------------------------999--777-6---|
---5--7--5--7---5---7---5--7--5-7-5-7----------------|
-----------------------------------------------------|

End on the 7th Post-Solo cycle with a ritardando and then fermata on E.

Song Structure:
Intro: (Drums for 6 measures)
Main Verse x 4
Bridge x 1
Main Verse x 4
Bridge x 2
Verse x 2
Main Verse x 3
Bridge x 2
Verse x 2
Solo x 18
Post-Solo x 7

Enjoy!
Suggest correction
Give kudos to tab author, rate the tab!
1 2 3 4 5
comments
print report bad tab
1 comment total.
0 reply
BookofBot72 430 Feb 06, 2014 11:37 PM

I think the "main verse" and the "verse" are both an octave up
Like this:
G------13----13---13----------------------11----11---11-----------------12-11-|
D--14-----14---------16--14--12-------12-----12----------14--12--11-----------|
A-------------------------------13----------------------------------12--------|
E-----------------------------------------------------------------------------|

guest
You may want to rate the tab now too:
select rating
Wanna post a correction for this tab? Suggest correction