Oops, an error
Loading. Please wait.

Seasons tab

46 views 1 this week
no commentswrite comment
1 2 3 4 5
2 more votes to show rating
add to favorites
×
Save as Personal and add changes to this tab that will be seen only by you. Learn more ›
×
You can save this tab as Personal to edit and correct it or add notes. All changes will be seen only by you. Learn more »
launch autoscroll
font size
0
reset
how to read this tab
guitar tuner
edit
Autoscroll
slow
fast
+/-
esc
set tempo
stop
Author
Difficulty
intermediate
[Intro]
e|---------------2-----------------------2--------|
B|---------------2-----------------------2--------|
G|---------------2-----------------------2--------|
D|---------------4-----------------------4--------|
A|---------------4-----------------------4--------|
E|---0---4---2---2-----------0---4---2---2--------|

e|---------------------------------------------------------------------|
B|---------------------------------------------------------------9-----|
G|-------------------9---8---6-------6-----------9---8---6--11------11-|
D|-------------------------------9-------9-----------------------------|
A|-------2-------------------------------------------------------------|
E|---4-------0---------------------------------------------------------|

 [Verse 1]
e|---------------2-----------------------2--------|
B|---------------2-----------------------2--------|
G|---------------2-----------------------2--------|
D|---------------4-----------------------4--------|
A|---------------4-----------------------4--------|
E|---0---4---2---2-----------0---4---2---2--------|

e|---------------------------------------------------------------------|
B|---------------------------------------------------------------9-----|
G|-------------------9---8---6-------6-----------9---8---6--11------11-|
D|-------------------------------9-------9-----------------------------|
A|-------2-------------------------------------------------------------|
E|---4-------0---------------------------------------------------------|

e|---------------2-----------------------2--------|
B|---------------2-----------------------2--------|
G|---------------2-----------------------2--------|
D|---------------4-----------------------4--------|
A|---------------4-----------------------4--------|
E|---0---4---2---2-----------0---4---2---2--------|

e|-----------------------------------------------------------------------------|
B|-------------------------------------------------------9-------9-------9-----|
G|-------------------9---8---6-------6-----------9--11------11------11------11-|
D|-------------------------------9-------9-------------------------------------|
A|-------2---------------------------------------------------------------------|
E|---4-------0-----------------------------------------------------------------|

 [Chorus]
e|--------------------------------------|
B|---7-------7---9----------------------|
G|---6-------6---8---8---9----8---9---8-|
D|---7-------7---9---9---9----9---9---9-|
A|-------------------7---7----7---7---7-|
E|--------------------------------------| (x3)

e|-----------------------------------------------------------------|
B|---7-------------------------------------------------------------|
G|---6-------------------------------------------------------------|
D|---7-------------------------------0---2---6---4---2---4---------|
A|-------------------------------2---------------------------2---4-|
E|-----------------------0---4-------------------------------------|

 [Verse 2]
e|---------------2-----------------------2--------|
B|---------------2-----------------------2--------|
G|---------------2-----------------------2--------|
D|---------------4-----------------------4--------|
A|---------------4-----------------------4--------|
E|---0---4---2---2-----------0---4---2---2--------|

e|---------------------------------------------------------------------|
B|---------------------------------------------------------------9-----|
G|-------------------9---8---6-------6-----------9---8---6--11------11-|
D|-------------------------------9-------9-----------------------------|
A|-------2-------------------------------------------------------------|
E|---4-------0---------------------------------------------------------|

e|---------------2-----------------------2--------|
B|---------------2-----------------------2--------|
G|---------------2-----------------------2--------|
D|---------------4-----------------------4--------|
A|---------------4-----------------------4--------|
E|---0---4---2---2-----------0---4---2---2--------|

e|-----------------------------------------------------------------------------|
B|-------------------------------------------------------9-------9-------9-----|
G|-------------------9---8---6-------6-----------9--11------11------11------11-|
D|-------------------------------9-------9-------------------------------------|
A|-------2---------------------------------------------------------------------|
E|---4-------0-----------------------------------------------------------------|

 [Chorus]
e|--------------------------------------|
B|---7-------7---9----------------------|
G|---6-------6---8---8---9----8---9---8-|
D|---7-------7---9---9---9----9---9---9-|
A|-------------------7---7----7---7---7-|
E|--------------------------------------| (x3)

e|----------------------------------------|
B|---7------------------------------------|
G|---6-------------------6----------------|
D|---7-------------------7----------------|
A|-----------------------7----------------|
E|-----------------------5----------------|

 [Bridge]
e|---------------------------7-------4---7---4---2---2---4---2---0---0---2---0-|
B|---------------9-----------9-------------------------------------------------|
G|---6-----------9-------------------------------------------------------------|
D|---7-----------9-------------------------------------------------------------|
A|---7-----------7-------------------------------------------------------------|
E|---5-------------------------------------------------------------------------|

 [Verse 3]
e|------------------------------------------------------------------------------------------|
B|------------------------------------------------------------------------------------------|
G|---8-------8---6-------6---8-------8---6-------6---8-------8---6-------6---8-------8---6--|
D|---7-------7---7-------7---7-------7---7-------7---7-------7---7-------7---7-------7---7--|
A|------------------------------------------------------------------------------------------|
E|------------------------------------------------------------------------------------------|

e|---4---4---4---4---4---7---9---7---4---4---4---4---4---7---4---2---2---4---2---0---0---2---0--|
B|----------------------------------------------------------------------------------------------|
G|----------------------------------------------------------------------------------------------|
D|----------------------------------------------------------------------------------------------|
A|----------------------------------------------------------------------------------------------|
E|----------------------------------------------------------------------------------------------| (x3)

e|---------------------------------------------------|
B|---------------------------------------------------|
G|---8-------8---6-------6---8-------8---6-------6---|
D|---7-------7---7-------7---7-------7---7-------7---|
A|---------------------------------------------------|
E|---------------------------------------------------|

e|----------------------------------------------------------7---|
B|---------------------------------------------------9----------|
G|---8-------8---6-------6---8---8---8---6---6---6---9----------|
D|---7-------7---7-------7---7---7---7---7---7---7---9----------|
A|---------------------------------------------------7----------|
E|--------------------------------------------------------------|

 [Solo]
e|------------------------------------------------------------------------------------------------------|
B|------------------------------------------------------------------------------------------------------|
G|---8---9---8---6---8---6---4---6---4---6---4----------------------------------------------------------|
D|-----------------------------------------------4---6---4---6-------9---9---9---------------9---9---9--|
A|-------------------------------------------------------------------------------7---7---7--------------|
E|------------------------------------------------------------------------------------------------------|

e|------------------------------------------------------------------------------------------------------|
B|-----------------------------------------------------------------------------------9------------------|
G|-----------------------9---8---6---4-------------------------------9------11-------------------8---9--|
D|---9---9--11---9-----------------------7---6---7---6---4----------------------------------------------|
A|-----------------------------------------------------------7------------------------------------------|
E|------------------------------------------------------------------------------------------------------|

e|----------------------------------------------------------------------------------------------------|
B|-------5---7---9------------------------------------------------------------------------------------|
G|---8-------------------4-------------------------------------------------------9---9---9---9---9----|
D|---------------------------6---4---2----------------------------------------------------------------|
A|---------------------------------------4---2---4---------------2---4---2----------------------------|
E|---------------------------------------------------0---2---4----------------------------------------|

e|---------------------|
B|-------------------9-|
G|---9------11---------|
D|---------------------|
A|---------------------|
E|---------------------|

 [Chorus]
e|--------------------------------------|
B|---7-------7---9----------------------|
G|---6-------6---8---8---9----8---9---8-|
D|---7-------7---9---9---9----9---9---9-|
A|-------------------7---7----7---7---7-|
E|--------------------------------------| (x3)

e|----------------------------------------|
B|---7------------------------------------|
G|---6-------------------6----------------|
D|---7-------------------7----------------|
A|-----------------------7----------------|
E|-----------------------5----------------|

            
            
Suggest correction
Creating personal tab
Creating personal tab
You can edit any tab online and save it as your Personal.

You can edit, replace or remove any tab part or add personal notes – all changes will be seen only by you.

Personal tabs can be accessed anytime from any device, even offline.
Learn more »
Give kudos to tab author, rate the tab!
1 2 3 4 5
comments
print report bad tab
guest
You may want to rate the tab now too:
select rating
Wanna post a correction for this tab? Suggest correction