Oops, an error
Loading. Please wait.

Siempre Estaras En Mi Tab

38 views 1 this week
no commentswrite comment
1 2 3 4 5
3 more votes to show rating
add to favorites
launch autoscroll
font size
0
reset
how to read this tab
guitar tuner
Autoscroll
slow
fast
+/-
esc
set tempo
stop
Help us to improve Ultimate-Guitar.com Take our survey!
×
aqui les dejo el solo de eta cancion espero y este bien denle
un poco de estilo para que se oiga bien

solo:

E:----------------10-9-------------10/12--10-9-10-7--------
B:-8/10/8-7-8---8-------7/8-7---7--------------------------
G:-------------9--------------9----------------------------
D:---------------------------------------------------------
A:---------------------------------------------------------
E:---------------------------------------------------------


E:----------------------------------------------------------
B:-8/10/8-7-8-8-7------------------------------------7-8-7/-
G:----------------9-7-9-7---9/11-9---9/11-9--7-7---9--------
D:------------------------9---------------------------------
A:----------------------------------------------------------
E:----------------------------------------------------------
Suggest correction
Give kudos to tab author, rate the tab!
1 2 3 4 5
comments
print report bad tab
guest
You may want to rate the tab now too:
select rating
Wanna post a correction for this tab? Suggest correction