Oops, an error
Loading. Please wait.

Velocidad Tab

73 views 3 this week
no commentswrite comment
1 2 3 4 5
3 more votes to show rating
add to favorites
launch autoscroll
font size
0
reset
how to read this tab
guitar tuner
Autoscroll
slow
fast
+/-
esc
set tempo
stop
Help us to improve Ultimate-Guitar.com Take our survey!
×
(Cada vez que salga el asterisco la guitarra hace esto:)
-----------------------------------------------------------
-----------------------------------------------------------
-----------------------------------------------------------
-------2-4-5-4---------------------------------------------
-2-3-5-----------------------------------------------------
-----------------------------------------------------------


(Esta es la intro a teclado:)
E5              C5         D5                 B5 C5
-----------------------------------------------------------
-----------------------------------------------------------
----11-12----11-12----11-12-14-12-11-----------------------
-14-------14-------14----------------14-12-10----10-12-14--
----------------------------------------------14-----------
-----------------------------------------------------------
 E5/D5    *     E5             C5             D5
-------------------19-17-------17--------------------------
-------13-12----17-------20-19----20-19-17h19h20-19-17-----
-11-12-------------------------------------------------17--
-----------------------------------------------------------
-----------------------------------------------------------
-----------------------------------------------------------
 B5  C5             E5/D5        *
--------------------------19h20-19-------------------------
-----------------17-19-20----------------------------------
-16--17p16h17-19-------------------------------------------
-----------------------------------------------------------
-----------------------------------------------------------
-----------------------------------------------------------


E5               C5
Todo comienza en la ciudad
D5              B5
Bajo la luz del sol
C5             E5/D5         *
Revienta en un trueno el motor

E5               C5
Al tiempo no quieras comprar
D5                  B5
No hay trampa ni cartón
C5         E5/D5      *
Quien gane será el mejor


E5         E5                 |
Velocidad, velocidad          |
C5              E5/D5       * |x2
Ni el viento te puede alcanzar|


E5               C5
A veces la velocidad
D5              B5
Entra en mi corazón
C5          E5/D5      *
Mi cuerpo parece estallar

E5                    C5
La vida no quieras cambiar
D5               B5
No pierdas el control
C5         E5/D5      *
Quien gane será el mejor


E5         E5                 |
Velocidad, velocidad          |
C5              E5/D5       * |x2
Ni el viento te puede alcanzar|


(Aquí viene el solo, pero es muy difícil porque tiene muchos
picados y no puedo sacarlo, los acordes son las mismas quintas)


E5         E5                 |
Velocidad, velocidad          |
C5              E5/D5       * |x2
Ni el viento te puede alcanzar|


(El teclista repite lo mismo de la intro:)

E5              C5         D5                 B5 C5
-----------------------------------------------------------
-----------------------------------------------------------
----11-12----11-12----11-12-14-12-11-----------------------
-14-------14-------14----------------14-12-10----10-12-14--
----------------------------------------------14-----------
-----------------------------------------------------------
 E5/D5    *     E5             C5             D5
-------------------19-17-------17--------------------------
-------13-12----17-------20-19----20-19-17h19h20-19-17-----
-11-12-------------------------------------------------17--
-----------------------------------------------------------
-----------------------------------------------------------
-----------------------------------------------------------
 B5  C5             E5/D5        *
--------------------------19h20-19-------------------------
-----------------17-19-20----------------------------------
-16--17p16h17-19-------------------------------------------
-----------------------------------------------------------
-----------------------------------------------------------
-----------------------------------------------------------

E5         E5       |x5
Velocidad, velocidad|
Suggest correction
Give kudos to tab author, rate the tab!
1 2 3 4 5
comments
print report bad tab
guest
You may want to rate the tab now too:
select rating
Wanna post a correction for this tab? Suggest correction