Oops, an error
Loading. Please wait.

Hilang chords

version 2
version 2

Whole song

  • Tuning is in Eb so basically the tune is in E desp... Show more
22 views 1 this week
no commentswrite comment
1 2 3 4 5
3 more votes to show rating
add to favorites
×
Save as Personal and add changes to this tab that will be seen only by you. Learn more ›
×
You can save this tab as Personal to edit and correct it or add notes. All changes will be seen only by you. Learn more »
launch autoscroll
font size
0
reset
transpose
0
reset
simplify chords
display chords
guitar tuner
edit
Autoscroll
slow
fast
+/-
esc
set tempo
stop
About this tab version
Tuning is in Eb so basically the tune is in E despite playing in F. This version is for guitarist who has the voice in lower key range than original artist. Tempo is set around 95bpm 4/4. Was this info helpful? Yes No
Strumming
There is no strumming pattern for this song yet. and get +5 IQ
[Intro]

  F
e|-------------------------------------|
B|-------------------------------------|
G|-----14------14------14-------14-----|
D|-------------------------------------| 2x
A|-------------------------------------|
E|-13-----13------13-------13----------|

  Am
e|-------------------------------------|
B|-------------------------------------|
G|-----5------5------5-------5---------|
D|-------------------------------------| 2x
A|-------------------------------------|
E|-5-----5------5-------5--------------|

  F
e|-------------------------------------|
B|-------------------------------------|
G|-----14------14------14-------14-----|
D|-------------------------------------| 2x
A|-------------------------------------|
E|-13-----13------13-------13----------|

  Cmaj7
e|-------------------------------------|
B|-------------------------------------|
G|-----9------9------9-------9---------|
D|-------------------------------------| 2x
A|-------------------------------------|
E|-8-----8------8-------8--------------|

[Verse 1]
F                   Am
Hadirlah keindahan 
Am
Abadi kau berikan 
F                       CMaj7
Kenangan telah ku alami

Dm            F   
Cinta yang didusta 
        Am
Prilaku dosa 
Am
Khayalan 
            Cmaj7
Kau memperdayaku

[Chorus]
         Gm     Bb                 
namun apalah dayaku 
            F           C
Tempuh dan biarkau hanyut 
             Gm      Bb       C
Hanyut dalam warna-warna dunia

[Verse 2]
F                   Am
Pedihnya ku rasakan 
Am
Melihat jiwa meronta 
F                       CMaj7
Ku gagahkan teguh berdiri

Dm        F
Segala nikmatnya 
          Am
Syurga kononnya 
Am
Kelalaian 
             CMaj7
Kau memperdayaku

[Chorus]
Gm              Bb
Namun segala kisah berlaku 
        F    C
Harus ku terima 
        Gm      Bb             C
Hanya berserah pada yang Maha Esa

Gm              Bb
Tiada apa ku harap 
        F           C
hanya dapat ku temukan 
       Gm         Bb       C
keindahan yang abadi selamanya

[Bridge]
F         Am    C
F         Cmaj7

[Chorus]
Gm              Bb
Namun segala kisah berlaku 
        F    C
Harus ku terima 
        Gm      Bb             C
Hanya berserah pada yang Maha Esa

Gm              Bb
Tiada apa ku harap 
        F           C
hanya dapat ku temukan 
       Gm         Bb       C
keindahan yang abadi selamanya

[Outro]
Gm    Bb
F     C
Gm    Bb   C

            
            
Suggest correction
Creating personal tab
Creating personal tab
You can edit any tab online and save it as your Personal.

You can edit, replace or remove any tab part or add personal notes – all changes will be seen only by you.

Personal tabs can be accessed anytime from any device, even offline.
Learn more »
Give kudos to tab author, rate the tab!
1 2 3 4 5
comments
print report bad tab
guest
You may want to rate the tab now too:
select rating
Wanna post a correction for this tab? Suggest correction