Oops, an error
Loading. Please wait.

Getaways Turned Holidays tab

version 1
version 1

Whole song

478 views 1 this week
1 commentread comment
1 2 3 4 5
3 more votes to show rating
add to favorites
×
Save as Personal and add changes to this tab that will be seen only by you. Learn more ›
×
You can save this tab as Personal to edit and correct it or add notes. All changes will be seen only by you. Learn more »
launch autoscroll
font size
0
reset
how to read this tab
guitar tuner
edit
Autoscroll
slow
fast
+/-
esc
set tempo
stop
The Meg and Dia Band: Getaways Turned Holidays
From: Something Real
Tuning: D-A-D-G-B-e   This tab will make more sense if you listen to the
                      song.
Intro:
e[-----5-----5-----5------5------------------------------]
B[---5--5--5--5--5--5---5--5-----------------------------]
G[--2-2---2-2---2-2----2-2-------------------------------]X1
D[-4-----4-----2------2------5-5-5-5-5-5-5-0-0-0-0-0-0-0-]
A[---------------------------5-5-5-5-5-5-5-0-0-0-0-0-0-0-]
D[---------------------------5-5-5-5-5-5-5-0-0-0-0-0-0-0-]

Verse:
e[-----5-----5-----5-----5-------------------------------]
B[---5--5--5--5--5--5---5--5-----------------------------]
G[--2-2---2-2---2-2----2-2-------------------------------]X2
D[-4-----4-----2------2------5-5-5-5-5-5-5-0-0-0-0-0-0-0-]
A[---------------------------5-5-5-5-5-5-5-0-0-0-0-0-0-0-]
D[---------------------------5-5-5-5-5-5-5-0-0-0-0-0-0-0-]

Pre-Chorus:
e[-----------------------------------------]
B[-----------------------------------------]
G[-----------------------------------------]X1 (Listen to this song to
D[-7-7-x-7-7-0-0-x-0-0-2-2-x-2-2-7-7-x-7-7-]      figure this part out)
A[-7-7-x-7-7-0-0-x-0-0-2-2-x-2-2-5-5-x-5-5-]
D[-7-7-x-7-7-0-0-x-0-0-2-2-x-2-2-7-7-x-7-7-]

e[--------------------------------------------------]
B[--------------------------------------------------]
G[--------------------------------------------------]X1 (Again, listen to
D[-7-7-x-7-7-0-0-x-0-0-5-5-5-5-5-5-5-7-7-7-7-7-7-7--]      this song to
A[-7-7-x-7-7-0-0-x-0-0-5-5-5-5-5-5-5-7-7-7-7-7-7-7--]    figure this part
D[-7-7-x-7-7-0-0-x-0-0-5-5-5-5-5-5-5-7-7-7-7-7-7-7--]       out)

Chorus:
e[---------------------------------------------------------]
B[---------------------------------------------------------]
G[---------------------------------------------------------]
D[-0-0-0-0-0-0-0-7-7-7-7-7-7-7-5-5-5-5-5-5-5-5-5-5-5-5-5-5-]
A[-0-0-0-0-0-0-0-7-7-7-7-7-7-7-5-5-5-5-5-5-5-5-5-5-5-5-5-5-]
D[-0-0-0-0-0-0-0-7-7-7-7-7-7-7-5-5-5-5-5-5-5-5-5-5-5-5-5-5-]

Still Chorus:
e[-------------------------------------------------------------------------]
B[-------------------------------------------------------------------------]
G[-------------------------------------------------------------------------]
D[-0-0-0-0-0-0-0-7-7-7-7-7-7-7-9-9-9-9-9-9-9-9-9-9-9-9-9-9-5-5-5-5-5-5-5-0-]
A[-0-0-0-0-0-0-0-7-7-7-7-7-7-7-9-9-9-9-9-9-9-9-9-9-9-9-9-9-5-5-5-5-5-5-5-0-]
D[-0-0-0-0-0-0-0-7-7-7-7-7-7-7-9-9-9-9-9-9-9-9-9-9-9-9-9-9-5-5-5-5-5-5-5-0-]

Play Verse

Play Pre-chorus

Play Chorus

Intrelude: (Hold the last note of the chorus along time then play this)
e[-------------------------------------------------------------------------]
B[-------------------------------------------------------------------------]
G[-------------------------------------------------------------------------]
D[-2-2-2-2-2-2-2-2-2-2-2-2-4-4-4-4-4-4-4-4-4-4-4-4-5-5-5-5-5-5-5-5-5-5-5-5-]
A[-2-2-2-2-2-2-2-2-2-2-2-2-4-4-4-4-4-4-4-4-4-4-4-4-5-5-5-5-5-5-5-5-5-5-5-5-]
D[-2-2-2-2-2-2-2-2-2-2-2-2-4-4-4-4-4-4-4-4-4-4-4-4-5-5-5-5-5-5-5-5-5-5-5-5-]

(Palm mute this the first time you play this and i think you play this 3 times?)

Then play this chorus like this:
e[-------------------------------------------]
B[-------------------------------------------]
G[-------------------------------------------]
D[-0~~~~~7-7-7-7-7-7-5-5-5-5-5-5-5-5-5-5-5-5-]
A[-0~~~~~7-7-7-7-7-7-5-5-5-5-5-5-5-5-5-5-5-5-]
D[-0~~~~~7-7-7-7-7-7-5-5-5-5-5-5-5-5-5-5-5-5-]

e[------------------------------------------------------------------]
B[------------------------------------------------------------------]
G[------------------------------------------------------------------]
D[0-0-0-0-0-0-7-7-7-7-7-7-9-9-9-9-9-9-9-9-9-9-9-9-5-5-5-5-5-5-5-5-5-]
A[0-0-0-0-0-0-7-7-7-7-7-7-9-9-9-9-9-9-9-9-9-9-9-9-5-5-5-5-5-5-5-5-5-]
D[0-0-0-0-0-0-7-7-7-7-7-7-9-9-9-9-9-9-9-9-9-9-9-9-5-5-5-5-5-5-5-5-5-]

keep playing d[-5-] until the end and end on d[-0-]
             a[-5-]                          a[-0-]
             d[-5-]                          d[-0-]

How many times you strum each chord isn't correct so listen to the song and you should 
able to figure that out. I know this isn't 100% correct but i think it sounds nice. Enjoy!

            
            
Suggest correction
Creating personal tab
Creating personal tab
You can edit any tab online and save it as your Personal.

You can edit, replace or remove any tab part or add personal notes – all changes will be seen only by you.

Personal tabs can be accessed anytime from any device, even offline.
Learn more »
Give kudos to tab author, rate the tab!
1 2 3 4 5
comments
print report bad tab
1 comment total.
0 reply
flanmchaos 138 Apr 26, 2007 06:51 PM

Intro can also be played
E:-----------------------------------------------
B:---10-----------10-----------------------------
G:--9---9--(x2)--9--9--(x2)----------------------
D:-7-7----------7-7--------5-55555-555-0-00000---
A:9------------7-----------5-55555-555-0-00000---
D:-------------------------5-55555-555-0-00000---

guest
You may want to rate the tab now too:
select rating
Wanna post a correction for this tab? Suggest correction